  0
SECTION
  2
HEADER
  9
$ACADVER
  1
AC1015
  9
$ACADMAINTVER
 70
     6
  9
$DWGCODEPAGE
  3
ANSI_932
  9
$INSBASE
 10
0.0
 20
0.0
 30
0.0
  9
$EXTMIN
 10
1.000000000000000E+20
 20
1.000000000000000E+20
 30
1.000000000000000E+20
  9
$EXTMAX
 10
-1.000000000000000E+20
 20
-1.000000000000000E+20
 30
-1.000000000000000E+20
  9
$LIMMIN
 10
0.0
 20
0.0
  9
$LIMMAX
 10
12.0
 20
9.0
  9
$ORTHOMODE
 70
     0
  9
$REGENMODE
 70
     1
  9
$FILLMODE
 70
     1
  9
$QTEXTMODE
 70
     0
  9
$MIRRTEXT
 70
     1
  9
$LTSCALE
 40
1.0
  9
$ATTMODE
 70
     1
  9
$TEXTSIZE
 40
0.2
  9
$TRACEWID
 40
0.05
  9
$TEXTSTYLE
  7
Standard
  9
$CLAYER
  8
0
  9
$CELTYPE
  6
ByLayer
  9
$CECOLOR
 62
   256
  9
$CELTSCALE
 40
1.0
  9
$DISPSILH
 70
     0
  9
$DIMSCALE
 40
1.0
  9
$DIMASZ
 40
0.18
  9
$DIMEXO
 40
0.0625
  9
$DIMDLI
 40
0.38
  9
$DIMRND
 40
0.0
  9
$DIMDLE
 40
0.0
  9
$DIMEXE
 40
0.18
  9
$DIMTP
 40
0.0
  9
$DIMTM
 40
0.0
  9
$DIMTXT
 40
0.18
  9
$DIMCEN
 40
0.09
  9
$DIMTSZ
 40
0.0
  9
$DIMTOL
 70
     0
  9
$DIMLIM
 70
     0
  9
$DIMTIH
 70
     1
  9
$DIMTOH
 70
     1
  9
$DIMSE1
 70
     0
  9
$DIMSE2
 70
     0
  9
$DIMTAD
 70
     0
  9
$DIMZIN
 70
     0
  9
$DIMBLK
  1

  9
$DIMASO
 70
     1
  9
$DIMSHO
 70
     1
  9
$DIMPOST
  1

  9
$DIMAPOST
  1

  9
$DIMALT
 70
     0
  9
$DIMALTD
 70
     2
  9
$DIMALTF
 40
25.4
  9
$DIMLFAC
 40
1.0
  9
$DIMTOFL
 70
     0
  9
$DIMTVP
 40
0.0
  9
$DIMTIX
 70
     0
  9
$DIMSOXD
 70
     0
  9
$DIMSAH
 70
     0
  9
$DIMBLK1
  1

  9
$DIMBLK2
  1

  9
$DIMSTYLE
  2
Standard
  9
$DIMCLRD
 70
     0
  9
$DIMCLRE
 70
     0
  9
$DIMCLRT
 70
     0
  9
$DIMTFAC
 40
1.0
  9
$DIMGAP
 40
0.09
  9
$DIMJUST
 70
     0
  9
$DIMSD1
 70
     0
  9
$DIMSD2
 70
     0
  9
$DIMTOLJ
 70
     1
  9
$DIMTZIN
 70
     0
  9
$DIMALTZ
 70
     0
  9
$DIMALTTZ
 70
     0
  9
$DIMUPT
 70
     0
  9
$DIMDEC
 70
     4
  9
$DIMTDEC
 70
     4
  9
$DIMALTU
 70
     2
  9
$DIMALTTD
 70
     2
  9
$DIMTXSTY
  7
Standard
  9
$DIMAUNIT
 70
     0
  9
$DIMADEC
 70
     0
  9
$DIMALTRND
 40
0.0
  9
$DIMAZIN
 70
     0
  9
$DIMDSEP
 70
    46
  9
$DIMATFIT
 70
     3
  9
$DIMFRAC
 70
     0
  9
$DIMLDRBLK
  1

  9
$DIMLUNIT
 70
     2
  9
$DIMLWD
 70
    -2
  9
$DIMLWE
 70
    -2
  9
$DIMTMOVE
 70
     0
  9
$LUNITS
 70
     2
  9
$LUPREC
 70
     4
  9
$SKETCHINC
 40
0.1
  9
$FILLETRAD
 40
0.5
  9
$AUNITS
 70
     0
  9
$AUPREC
 70
     0
  9
$MENU
  1
.
  9
$ELEVATION
 40
0.0
  9
$PELEVATION
 40
0.0
  9
$THICKNESS
 40
0.0
  9
$LIMCHECK
 70
     0
  9
$CHAMFERA
 40
0.5
  9
$CHAMFERB
 40
0.5
  9
$CHAMFERC
 40
1.0
  9
$CHAMFERD
 40
0.0
  9
$SKPOLY
 70
     0
  9
$TDCREATE
 40
2457365.474293982
  9
$TDUCREATE
 40
2457365.682627315
  9
$TDUPDATE
 40
2457365.474293993
  9
$TDUUPDATE
 40
2457365.682627326
  9
$TDINDWG
 40
0.0000000116
  9
$TDUSRTIMER
 40
0.0000000116
  9
$USRTIMER
 70
     1
  9
$ANGBASE
 50
0.0
  9
$ANGDIR
 70
     0
  9
$PDMODE
 70
     0
  9
$PDSIZE
 40
0.0
  9
$PLINEWID
 40
0.0
  9
$SPLFRAME
 70
     0
  9
$SPLINETYPE
 70
     6
  9
$SPLINESEGS
 70
     8
  9
$HANDSEED
  5
781
  9
$SURFTAB1
 70
     6
  9
$SURFTAB2
 70
     6
  9
$SURFTYPE
 70
     6
  9
$SURFU
 70
     6
  9
$SURFV
 70
     6
  9
$UCSBASE
  2

  9
$UCSNAME
  2

  9
$UCSORG
 10
0.0
 20
0.0
 30
0.0
  9
$UCSXDIR
 10
1.0
 20
0.0
 30
0.0
  9
$UCSYDIR
 10
0.0
 20
1.0
 30
0.0
  9
$UCSORTHOREF
  2

  9
$UCSORTHOVIEW
 70
     0
  9
$UCSORGTOP
 10
0.0
 20
0.0
 30
0.0
  9
$UCSORGBOTTOM
 10
0.0
 20
0.0
 30
0.0
  9
$UCSORGLEFT
 10
0.0
 20
0.0
 30
0.0
  9
$UCSORGRIGHT
 10
0.0
 20
0.0
 30
0.0
  9
$UCSORGFRONT
 10
0.0
 20
0.0
 30
0.0
  9
$UCSORGBACK
 10
0.0
 20
0.0
 30
0.0
  9
$PUCSBASE
  2

  9
$PUCSNAME
  2

  9
$PUCSORG
 10
0.0
 20
0.0
 30
0.0
  9
$PUCSXDIR
 10
1.0
 20
0.0
 30
0.0
  9
$PUCSYDIR
 10
0.0
 20
1.0
 30
0.0
  9
$PUCSORTHOREF
  2

  9
$PUCSORTHOVIEW
 70
     0
  9
$PUCSORGTOP
 10
0.0
 20
0.0
 30
0.0
  9
$PUCSORGBOTTOM
 10
0.0
 20
0.0
 30
0.0
  9
$PUCSORGLEFT
 10
0.0
 20
0.0
 30
0.0
  9
$PUCSORGRIGHT
 10
0.0
 20
0.0
 30
0.0
  9
$PUCSORGFRONT
 10
0.0
 20
0.0
 30
0.0
  9
$PUCSORGBACK
 10
0.0
 20
0.0
 30
0.0
  9
$USERI1
 70
     0
  9
$USERI2
 70
     0
  9
$USERI3
 70
     0
  9
$USERI4
 70
     0
  9
$USERI5
 70
     0
  9
$USERR1
 40
0.0
  9
$USERR2
 40
0.0
  9
$USERR3
 40
0.0
  9
$USERR4
 40
0.0
  9
$USERR5
 40
0.0
  9
$WORLDVIEW
 70
     1
  9
$SHADEDGE
 70
     3
  9
$SHADEDIF
 70
    70
  9
$TILEMODE
 70
     1
  9
$MAXACTVP
 70
    64
  9
$PINSBASE
 10
0.0
 20
0.0
 30
0.0
  9
$PLIMCHECK
 70
     0
  9
$PEXTMIN
 10
1.000000000000000E+20
 20
1.000000000000000E+20
 30
1.000000000000000E+20
  9
$PEXTMAX
 10
-1.000000000000000E+20
 20
-1.000000000000000E+20
 30
-1.000000000000000E+20
  9
$PLIMMIN
 10
0.0
 20
0.0
  9
$PLIMMAX
 10
12.0
 20
9.0
  9
$UNITMODE
 70
     0
  9
$VISRETAIN
 70
     1
  9
$PLINEGEN
 70
     0
  9
$PSLTSCALE
 70
     1
  9
$TREEDEPTH
 70
  3020
  9
$CMLSTYLE
  2
Standard
  9
$CMLJUST
 70
     0
  9
$CMLSCALE
 40
1.0
  9
$PROXYGRAPHICS
 70
     1
  9
$MEASUREMENT
 70
     0
  9
$CELWEIGHT
370
    -1
  9
$ENDCAPS
280
     0
  9
$JOINSTYLE
280
     0
  9
$LWDISPLAY
290
     1
  9
$INSUNITS
 70
     1
  9
$HYPERLINKBASE
  1

  9
$STYLESHEET
  1

  9
$XEDIT
290
     1
  9
$CEPSNTYPE
380
     0
  9
$PSTYLEMODE
290
     1
  9
$FINGERPRINTGUID
  2
{FEF26CB1-2E43-A7EE-79D1-93EF86278405}
  9
$VERSIONGUID
  2
{FAEB1C32-E019-11D5-929B-00C0DF256EC4}
  9
$EXTNAMES
290
     1
  9
$PSVPSCALE
 40
0.0
  9
$OLESTARTUP
290
     0
  0
ENDSEC
  0
SECTION
  2
CLASSES
  0
CLASS
  1
ACDBDICTIONARYWDFLT
  2
AcDbDictionaryWithDefault
  3
ObjectDBX Classes
 90
        0
280
     0
281
     0
  0
CLASS
  1
VISUALSTYLE
  2
AcDbVisualStyle
  3
ObjectDBX Classes
 90
     4095
280
     0
281
     0
  0
CLASS
  1
ACDBPLACEHOLDER
  2
AcDbPlaceHolder
  3
ObjectDBX Classes
 90
        0
280
     0
281
     0
  0
CLASS
  1
LAYOUT
  2
AcDbLayout
  3
ObjectDBX Classes
 90
        0
280
     0
281
     0
  0
ENDSEC
  0
SECTION
  2
TABLES
  0
TABLE
  2
VPORT
  5
8
330
0
100
AcDbSymbolTable
 70
     1
  0
VPORT
  5
29
330
8
100
AcDbSymbolTableRecord
100
AcDbViewportTableRecord
  2
*Active
 70
     0
 10
0.0
 20
0.0
 11
1.0
 21
1.0
 12
0.0
 22
0.0
 13
0.0
 23
0.0
 14
0.5
 24
0.5
 15
0.5
 25
0.5
 16
0.0
 26
0.0
 36
1.0
 17
5.000681559244791
 27
-4.500678168402778
 37
0.0
 40
9.001356336805555
 41
1.111095122142328
 42
50.0
 43
0.0
 44
0.0
 50
0.0
 51
0.0
 71
     0
 72
   100
 73
     1
 74
     3
 75
     0
 76
     0
 77
     0
 78
     0
281
     0
 65
     1
110
0.0
120
0.0
130
0.0
111
1.0
121
0.0
131
0.0
112
0.0
122
1.0
132
0.0
 79
     0
146
0.0
  0
ENDTAB
  0
TABLE
  2
LTYPE
  5
5
330
0
100
AcDbSymbolTable
 70
     1
  0
LTYPE
  5
14
330
5
100
AcDbSymbolTableRecord
100
AcDbLinetypeTableRecord
  2
ByBlock
 70
     0
  3

 72
    65
 73
     0
 40
0.0
  0
LTYPE
  5
15
330
5
100
AcDbSymbolTableRecord
100
AcDbLinetypeTableRecord
  2
ByLayer
 70
     0
  3

 72
    65
 73
     0
 40
0.0
  0
LTYPE
  5
16
330
5
100
AcDbSymbolTableRecord
100
AcDbLinetypeTableRecord
  2
Continuous
 70
     0
  3
Solid line
 72
    65
 73
     0
 40
0.0
  0
ENDTAB
  0
TABLE
  2
LAYER
  5
2
330
0
100
AcDbSymbolTable
 70
     2
  0
LAYER
  5
10
330
2
100
AcDbSymbolTableRecord
100
AcDbLayerTableRecord
  2
0
 70
     0
 62
     7
  6
Continuous
370
    -3
390
F
  0
LAYER
  5
3B
330
2
100
AcDbSymbolTableRecord
100
AcDbLayerTableRecord
  2
Layer 1
 70
     0
 62
     7
  6
Continuous
370
    -3
390
F
  0
ENDTAB
  0
TABLE
  2
STYLE
  5
3
330
0
100
AcDbSymbolTable
 70
     1
  0
STYLE
  5
11
330
3
100
AcDbSymbolTableRecord
100
AcDbTextStyleTableRecord
  2
Standard
 70
     0
 40
0.0
 41
1.0
 50
0.0
 71
     0
 42
0.2
  3
txt
  4

  0
ENDTAB
  0
TABLE
  2
VIEW
  5
6
330
0
100
AcDbSymbolTable
 70
     0
  0
ENDTAB
  0
TABLE
  2
UCS
  5
7
330
0
100
AcDbSymbolTable
 70
     0
  0
ENDTAB
  0
TABLE
  2
APPID
  5
9
330
0
100
AcDbSymbolTable
 70
     1
  0
APPID
  5
12
330
9
100
AcDbSymbolTableRecord
100
AcDbRegAppTableRecord
  2
ACAD
 70
     0
  0
ENDTAB
  0
TABLE
  2
DIMSTYLE
  5
A
330
0
100
AcDbSymbolTable
 70
     1
100
AcDbDimStyleTable
  0
DIMSTYLE
105
27
330
A
100
AcDbSymbolTableRecord
100
AcDbDimStyleTableRecord
  2
Standard
 70
     0
340
11
  0
ENDTAB
  0
TABLE
  2
BLOCK_RECORD
  5
1
330
0
100
AcDbSymbolTable
 70
    55
  0
BLOCK_RECORD
  5
1F
330
1
100
AcDbSymbolTableRecord
100
AcDbBlockTableRecord
  2
*Model_Space
340
22
  0
BLOCK_RECORD
  5
1B
330
1
100
AcDbSymbolTableRecord
100
AcDbBlockTableRecord
  2
*Paper_Space
340
1E
  0
BLOCK_RECORD
  5
23
330
1
100
AcDbSymbolTableRecord
100
AcDbBlockTableRecord
  2
*Paper_Space0
340
26
  0
BLOCK_RECORD
  5
4A
330
1
100
AcDbSymbolTableRecord
100
AcDbBlockTableRecord
  2
block 2
340
0
102
{BLKREFS
331
4B
102
}
  0
BLOCK_RECORD
  5
119
330
1
100
AcDbSymbolTableRecord
100
AcDbBlockTableRecord
  2
block 3
340
0
102
{BLKREFS
331
11A
102
}
  0
BLOCK_RECORD
  5
1E1
330
1
100
AcDbSymbolTableRecord
100
AcDbBlockTableRecord
  2
block 4
340
0
102
{BLKREFS
331
1E2
102
}
  0
BLOCK_RECORD
  5
1F1
330
1
100
AcDbSymbolTableRecord
100
AcDbBlockTableRecord
  2
block 5
340
0
102
{BLKREFS
331
1F2
102
}
  0
BLOCK_RECORD
  5
20D
330
1
100
AcDbSymbolTableRecord
100
AcDbBlockTableRecord
  2
block 6
340
0
102
{BLKREFS
331
20E
102
}
  0
BLOCK_RECORD
  5
229
330
1
100
AcDbSymbolTableRecord
100
AcDbBlockTableRecord
  2
block 7
340
0
102
{BLKREFS
331
22A
102
}
  0
BLOCK_RECORD
  5
245
330
1
100
AcDbSymbolTableRecord
100
AcDbBlockTableRecord
  2
block 8
340
0
102
{BLKREFS
331
246
102
}
  0
BLOCK_RECORD
  5
261
330
1
100
AcDbSymbolTableRecord
100
AcDbBlockTableRecord
  2
block 9
340
0
102
{BLKREFS
331
262
102
}
  0
BLOCK_RECORD
  5
27D
330
1
100
AcDbSymbolTableRecord
100
AcDbBlockTableRecord
  2
block 10
340
0
102
{BLKREFS
331
27E
102
}
  0
BLOCK_RECORD
  5
299
330
1
100
AcDbSymbolTableRecord
100
AcDbBlockTableRecord
  2
block 11
340
0
102
{BLKREFS
331
29A
102
}
  0
BLOCK_RECORD
  5
2B5
330
1
100
AcDbSymbolTableRecord
100
AcDbBlockTableRecord
  2
block 12
340
0
102
{BLKREFS
331
2B6
102
}
  0
BLOCK_RECORD
  5
2D1
330
1
100
AcDbSymbolTableRecord
100
AcDbBlockTableRecord
  2
block 13
340
0
102
{BLKREFS
331
2D2
102
}
  0
BLOCK_RECORD
  5
2ED
330
1
100
AcDbSymbolTableRecord
100
AcDbBlockTableRecord
  2
block 14
340
0
102
{BLKREFS
331
2EE
102
}
  0
BLOCK_RECORD
  5
309
330
1
100
AcDbSymbolTableRecord
100
AcDbBlockTableRecord
  2
block 15
340
0
102
{BLKREFS
331
30A
102
}
  0
BLOCK_RECORD
  5
325
330
1
100
AcDbSymbolTableRecord
100
AcDbBlockTableRecord
  2
block 16
340
0
102
{BLKREFS
331
326
102
}
  0
BLOCK_RECORD
  5
341
330
1
100
AcDbSymbolTableRecord
100
AcDbBlockTableRecord
  2
block 17
340
0
102
{BLKREFS
331
342
102
}
  0
BLOCK_RECORD
  5
35D
330
1
100
AcDbSymbolTableRecord
100
AcDbBlockTableRecord
  2
block 18
340
0
102
{BLKREFS
331
35E
102
}
  0
BLOCK_RECORD
  5
379
330
1
100
AcDbSymbolTableRecord
100
AcDbBlockTableRecord
  2
block 19
340
0
102
{BLKREFS
331
37A
102
}
  0
BLOCK_RECORD
  5
395
330
1
100
AcDbSymbolTableRecord
100
AcDbBlockTableRecord
  2
block 20
340
0
102
{BLKREFS
331
396
102
}
  0
BLOCK_RECORD
  5
3B1
330
1
100
AcDbSymbolTableRecord
100
AcDbBlockTableRecord
  2
block 21
340
0
102
{BLKREFS
331
3B2
102
}
  0
BLOCK_RECORD
  5
3CD
330
1
100
AcDbSymbolTableRecord
100
AcDbBlockTableRecord
  2
block 22
340
0
102
{BLKREFS
331
3CE
102
}
  0
BLOCK_RECORD
  5
3E9
330
1
100
AcDbSymbolTableRecord
100
AcDbBlockTableRecord
  2
block 23
340
0
102
{BLKREFS
331
3EA
102
}
  0
BLOCK_RECORD
  5
405
330
1
100
AcDbSymbolTableRecord
100
AcDbBlockTableRecord
  2
block 24
340
0
102
{BLKREFS
331
406
102
}
  0
BLOCK_RECORD
  5
421
330
1
100
AcDbSymbolTableRecord
100
AcDbBlockTableRecord
  2
block 25
340
0
102
{BLKREFS
331
422
102
}
  0
BLOCK_RECORD
  5
43D
330
1
100
AcDbSymbolTableRecord
100
AcDbBlockTableRecord
  2
block 26
340
0
102
{BLKREFS
331
43E
102
}
  0
BLOCK_RECORD
  5
459
330
1
100
AcDbSymbolTableRecord
100
AcDbBlockTableRecord
  2
block 27
340
0
102
{BLKREFS
331
45A
102
}
  0
BLOCK_RECORD
  5
475
330
1
100
AcDbSymbolTableRecord
100
AcDbBlockTableRecord
  2
block 28
340
0
102
{BLKREFS
331
476
102
}
  0
BLOCK_RECORD
  5
491
330
1
100
AcDbSymbolTableRecord
100
AcDbBlockTableRecord
  2
block 29
340
0
102
{BLKREFS
331
492
102
}
  0
BLOCK_RECORD
  5
4B4
330
1
100
AcDbSymbolTableRecord
100
AcDbBlockTableRecord
  2
block 30
340
0
102
{BLKREFS
331
4B5
102
}
  0
BLOCK_RECORD
  5
4C4
330
1
100
AcDbSymbolTableRecord
100
AcDbBlockTableRecord
  2
block 31
340
0
102
{BLKREFS
331
4C5
102
}
  0
BLOCK_RECORD
  5
4E0
330
1
100
AcDbSymbolTableRecord
100
AcDbBlockTableRecord
  2
block 32
340
0
102
{BLKREFS
331
4E1
102
}
  0
BLOCK_RECORD
  5
4FC
330
1
100
AcDbSymbolTableRecord
100
AcDbBlockTableRecord
  2
block 33
340
0
102
{BLKREFS
331
4FD
102
}
  0
BLOCK_RECORD
  5
518
330
1
100
AcDbSymbolTableRecord
100
AcDbBlockTableRecord
  2
block 34
340
0
102
{BLKREFS
331
519
102
}
  0
BLOCK_RECORD
  5
534
330
1
100
AcDbSymbolTableRecord
100
AcDbBlockTableRecord
  2
block 35
340
0
102
{BLKREFS
331
535
102
}
  0
BLOCK_RECORD
  5
550
330
1
100
AcDbSymbolTableRecord
100
AcDbBlockTableRecord
  2
block 36
340
0
102
{BLKREFS
331
551
102
}
  0
BLOCK_RECORD
  5
56C
330
1
100
AcDbSymbolTableRecord
100
AcDbBlockTableRecord
  2
block 37
340
0
102
{BLKREFS
331
56D
102
}
  0
BLOCK_RECORD
  5
588
330
1
100
AcDbSymbolTableRecord
100
AcDbBlockTableRecord
  2
block 38
340
0
102
{BLKREFS
331
589
102
}
  0
BLOCK_RECORD
  5
5A4
330
1
100
AcDbSymbolTableRecord
100
AcDbBlockTableRecord
  2
block 39
340
0
102
{BLKREFS
331
5A5
102
}
  0
BLOCK_RECORD
  5
5C0
330
1
100
AcDbSymbolTableRecord
100
AcDbBlockTableRecord
  2
block 40
340
0
102
{BLKREFS
331
5C1
102
}
  0
BLOCK_RECORD
  5
5DC
330
1
100
AcDbSymbolTableRecord
100
AcDbBlockTableRecord
  2
block 41
340
0
102
{BLKREFS
331
5DD
102
}
  0
BLOCK_RECORD
  5
5F8
330
1
100
AcDbSymbolTableRecord
100
AcDbBlockTableRecord
  2
block 42
340
0
102
{BLKREFS
331
5F9
102
}
  0
BLOCK_RECORD
  5
614
330
1
100
AcDbSymbolTableRecord
100
AcDbBlockTableRecord
  2
block 43
340
0
102
{BLKREFS
331
615
102
}
  0
BLOCK_RECORD
  5
630
330
1
100
AcDbSymbolTableRecord
100
AcDbBlockTableRecord
  2
block 44
340
0
102
{BLKREFS
331
631
102
}
  0
BLOCK_RECORD
  5
64C
330
1
100
AcDbSymbolTableRecord
100
AcDbBlockTableRecord
  2
block 45
340
0
102
{BLKREFS
331
64D
102
}
  0
BLOCK_RECORD
  5
668
330
1
100
AcDbSymbolTableRecord
100
AcDbBlockTableRecord
  2
block 46
340
0
102
{BLKREFS
331
669
102
}
  0
BLOCK_RECORD
  5
684
330
1
100
AcDbSymbolTableRecord
100
AcDbBlockTableRecord
  2
block 47
340
0
102
{BLKREFS
331
685
102
}
  0
BLOCK_RECORD
  5
6A0
330
1
100
AcDbSymbolTableRecord
100
AcDbBlockTableRecord
  2
block 48
340
0
102
{BLKREFS
331
6A1
102
}
  0
BLOCK_RECORD
  5
6BC
330
1
100
AcDbSymbolTableRecord
100
AcDbBlockTableRecord
  2
block 49
340
0
102
{BLKREFS
331
6BD
102
}
  0
BLOCK_RECORD
  5
6D8
330
1
100
AcDbSymbolTableRecord
100
AcDbBlockTableRecord
  2
block 50
340
0
102
{BLKREFS
331
6D9
102
}
  0
BLOCK_RECORD
  5
6F4
330
1
100
AcDbSymbolTableRecord
100
AcDbBlockTableRecord
  2
block 51
340
0
102
{BLKREFS
331
6F5
102
}
  0
BLOCK_RECORD
  5
710
330
1
100
AcDbSymbolTableRecord
100
AcDbBlockTableRecord
  2
block 52
340
0
102
{BLKREFS
331
711
102
}
  0
BLOCK_RECORD
  5
72C
330
1
100
AcDbSymbolTableRecord
100
AcDbBlockTableRecord
  2
block 53
340
0
102
{BLKREFS
331
72D
102
}
  0
BLOCK_RECORD
  5
748
330
1
100
AcDbSymbolTableRecord
100
AcDbBlockTableRecord
  2
block 54
340
0
102
{BLKREFS
331
749
102
}
  0
BLOCK_RECORD
  5
764
330
1
100
AcDbSymbolTableRecord
100
AcDbBlockTableRecord
  2
block 55
340
0
102
{BLKREFS
331
765
102
}
  0
ENDTAB
  0
ENDSEC
  0
SECTION
  2
BLOCKS
  0
BLOCK
  5
20
330
1F
100
AcDbEntity
  8
0
100
AcDbBlockBegin
  2
*Model_Space
 70
     0
 71
     0
 10
0.0
 20
0.0
 30
0.0
  3
*Model_Space
  1

  0
ENDBLK
  5
21
330
1F
100
AcDbEntity
  8
0
100
AcDbBlockEnd
  0
BLOCK
  5
1C
330
1B
100
AcDbEntity
 67
     1
  8
0
100
AcDbBlockBegin
  2
*Paper_Space
 70
     0
 71
     0
 10
0.0
 20
0.0
 30
0.0
  3
*Paper_Space
  1

  0
ENDBLK
  5
1D
330
1B
100
AcDbEntity
 67
     1
  8
0
100
AcDbBlockEnd
  0
BLOCK
  5
24
330
23
100
AcDbEntity
  8
0
100
AcDbBlockBegin
  2
*Paper_Space0
 70
     0
 71
     0
 10
0.0
 20
0.0
 30
0.0
  3
*Paper_Space0
  1

  0
ENDBLK
  5
25
330
23
100
AcDbEntity
  8
0
100
AcDbBlockEnd
  0
BLOCK
  5
4C
330
4A
100
AcDbEntity
  8
0
100
AcDbBlockBegin
  2
block 2
 70
     0
 71
     0
 10
0.0
 20
0.0
 30
0.0
  3
block 2
  1

  0
POLYLINE
  5
4E
330
4A
100
AcDbEntity
  8
Layer 1
 62
   250
370
    18
100
AcDb2dPolyline
 66
     1
 10
0.0
 20
0.0
 30
0.0
  0
VERTEX
  5
4F
330
4E
100
AcDbEntity
  8
Layer 1
 62
   250
370
    18
100
AcDbVertex
100
AcDb2dVertex
 10
4.577229817708333
 20
-7.874715169270833
 30
0.0
  0
VERTEX
  5
50
330
4E
100
AcDbEntity
  8
Layer 1
 62
   250
370
    18
100
AcDbVertex
100
AcDb2dVertex
 10
4.577229817708333
 20
-7.999715169270833
 30
0.0
  0
VERTEX
  5
51
330
4E
100
AcDbEntity
  8
Layer 1
 62
   250
370
    18
100
AcDbVertex
100
AcDb2dVertex
 10
1.327243381076389
 20
-7.999715169270833
 30
0.0
  0
VERTEX
  5
52
330
4E
100
AcDbEntity
  8
Layer 1
 62
   250
370
    18
100
AcDbVertex
100
AcDb2dVertex
 10
1.327243381076389
 20
-7.874715169270833
 30
0.0
  0
VERTEX
  5
53
330
4E
100
AcDbEntity
  8
Layer 1
 62
   250
370
    18
100
AcDbVertex
100
AcDb2dVertex
 10
4.577229817708333
 20
-7.874715169270833
 30
0.0
  0
SEQEND
  5
54
330
4E
100
AcDbEntity
  8
Layer 1
370
    18
  0
POLYLINE
  5
55
330
4A
100
AcDbEntity
  8
Layer 1
 62
   250
370
    18
100
AcDb2dPolyline
 66
     1
 10
0.0
 20
0.0
 30
0.0
  0
VERTEX
  5
56
330
55
100
AcDbEntity
  8
Layer 1
 62
   250
370
    18
100
AcDbVertex
100
AcDb2dVertex
 10
4.577229817708333
 20
-7.374715169270833
 30
0.0
  0
VERTEX
  5
57
330
55
100
AcDbEntity
  8
Layer 1
 62
   250
370
    18
100
AcDbVertex
100
AcDb2dVertex
 10
4.577229817708333
 20
-7.499715169270833
 30
0.0
  0
VERTEX
  5
58
330
55
100
AcDbEntity
  8
Layer 1
 62
   250
370
    18
100
AcDbVertex
100
AcDb2dVertex
 10
1.327243381076389
 20
-7.499715169270833
 30
0.0
  0
VERTEX
  5
59
330
55
100
AcDbEntity
  8
Layer 1
 62
   250
370
    18
100
AcDbVertex
100
AcDb2dVertex
 10
1.327243381076389
 20
-7.374715169270833
 30
0.0
  0
VERTEX
  5
5A
330
55
100
AcDbEntity
  8
Layer 1
 62
   250
370
    18
100
AcDbVertex
100
AcDb2dVertex
 10
4.577229817708333
 20
-7.374715169270833
 30
0.0
  0
SEQEND
  5
5B
330
55
100
AcDbEntity
  8
Layer 1
370
    18
  0
POLYLINE
  5
5C
330
4A
100
AcDbEntity
  8
Layer 1
 62
   250
370
    18
100
AcDb2dPolyline
 66
     1
 10
0.0
 20
0.0
 30
0.0
  0
VERTEX
  5
5D
330
5C
100
AcDbEntity
  8
Layer 1
 62
   250
370
    18
100
AcDbVertex
100
AcDb2dVertex
 10
4.577229817708333
 20
-6.874715169270833
 30
0.0
  0
VERTEX
  5
5E
330
5C
100
AcDbEntity
  8
Layer 1
 62
   250
370
    18
100
AcDbVertex
100
AcDb2dVertex
 10
4.577229817708333
 20
-6.999715169270833
 30
0.0
  0
VERTEX
  5
5F
330
5C
100
AcDbEntity
  8
Layer 1
 62
   250
370
    18
100
AcDbVertex
100
AcDb2dVertex
 10
1.327243381076389
 20
-6.999715169270833
 30
0.0
  0
VERTEX
  5
60
330
5C
100
AcDbEntity
  8
Layer 1
 62
   250
370
    18
100
AcDbVertex
100
AcDb2dVertex
 10
1.327243381076389
 20
-6.874715169270833
 30
0.0
  0
VERTEX
  5
61
330
5C
100
AcDbEntity
  8
Layer 1
 62
   250
370
    18
100
AcDbVertex
100
AcDb2dVertex
 10
4.577229817708333
 20
-6.874715169270833
 30
0.0
  0
SEQEND
  5
62
330
5C
100
AcDbEntity
  8
Layer 1
370
    18
  0
POLYLINE
  5
63
330
4A
100
AcDbEntity
  8
Layer 1
 62
   250
370
    18
100
AcDb2dPolyline
 66
     1
 10
0.0
 20
0.0
 30
0.0
  0
VERTEX
  5
64
330
63
100
AcDbEntity
  8
Layer 1
 62
   250
370
    18
100
AcDbVertex
100
AcDb2dVertex
 10
4.577229817708333
 20
-6.374715169270833
 30
0.0
  0
VERTEX
  5
65
330
63
100
AcDbEntity
  8
Layer 1
 62
   250
370
    18
100
AcDbVertex
100
AcDb2dVertex
 10
4.577229817708333
 20
-6.499715169270833
 30
0.0
  0
VERTEX
  5
66
330
63
100
AcDbEntity
  8
Layer 1
 62
   250
370
    18
100
AcDbVertex
100
AcDb2dVertex
 10
1.327243381076389
 20
-6.499715169270833
 30
0.0
  0
VERTEX
  5
67
330
63
100
AcDbEntity
  8
Layer 1
 62
   250
370
    18
100
AcDbVertex
100
AcDb2dVertex
 10
1.327243381076389
 20
-6.374715169270833
 30
0.0
  0
VERTEX
  5
68
330
63
100
AcDbEntity
  8
Layer 1
 62
   250
370
    18
100
AcDbVertex
100
AcDb2dVertex
 10
4.577229817708333
 20
-6.374715169270833
 30
0.0
  0
SEQEND
  5
69
330
63
100
AcDbEntity
  8
Layer 1
370
    18
  0
POLYLINE
  5
6A
330
4A
100
AcDbEntity
  8
Layer 1
 62
   250
370
    18
100
AcDb2dPolyline
 66
     1
 10
0.0
 20
0.0
 30
0.0
  0
VERTEX
  5
6B
330
6A
100
AcDbEntity
  8
Layer 1
 62
   250
370
    18
100
AcDbVertex
100
AcDb2dVertex
 10
4.577229817708333
 20
-5.874715169270833
 30
0.0
  0
VERTEX
  5
6C
330
6A
100
AcDbEntity
  8
Layer 1
 62
   250
370
    18
100
AcDbVertex
100
AcDb2dVertex
 10
4.577229817708333
 20
-5.999715169270833
 30
0.0
  0
VERTEX
  5
6D
330
6A
100
AcDbEntity
  8
Layer 1
 62
   250
370
    18
100
AcDbVertex
100
AcDb2dVertex
 10
1.327243381076389
 20
-5.999715169270833
 30
0.0
  0
VERTEX
  5
6E
330
6A
100
AcDbEntity
  8
Layer 1
 62
   250
370
    18
100
AcDbVertex
100
AcDb2dVertex
 10
1.327243381076389
 20
-5.874715169270833
 30
0.0
  0
VERTEX
  5
6F
330
6A
100
AcDbEntity
  8
Layer 1
 62
   250
370
    18
100
AcDbVertex
100
AcDb2dVertex
 10
4.577229817708333
 20
-5.874715169270833
 30
0.0
  0
SEQEND
  5
70
330
6A
100
AcDbEntity
  8
Layer 1
370
    18
  0
POLYLINE
  5
71
330
4A
100
AcDbEntity
  8
Layer 1
 62
   250
370
    18
100
AcDb2dPolyline
 66
     1
 10
0.0
 20
0.0
 30
0.0
  0
VERTEX
  5
72
330
71
100
AcDbEntity
  8
Layer 1
 62
   250
370
    18
100
AcDbVertex
100
AcDb2dVertex
 10
4.577229817708333
 20
-5.374715169270833
 30
0.0
  0
VERTEX
  5
73
330
71
100
AcDbEntity
  8
Layer 1
 62
   250
370
    18
100
AcDbVertex
100
AcDb2dVertex
 10
4.577229817708333
 20
-5.499715169270833
 30
0.0
  0
VERTEX
  5
74
330
71
100
AcDbEntity
  8
Layer 1
 62
   250
370
    18
100
AcDbVertex
100
AcDb2dVertex
 10
1.327243381076389
 20
-5.499715169270833
 30
0.0
  0
VERTEX
  5
75
330
71
100
AcDbEntity
  8
Layer 1
 62
   250
370
    18
100
AcDbVertex
100
AcDb2dVertex
 10
1.327243381076389
 20
-5.374715169270833
 30
0.0
  0
VERTEX
  5
76
330
71
100
AcDbEntity
  8
Layer 1
 62
   250
370
    18
100
AcDbVertex
100
AcDb2dVertex
 10
4.577229817708333
 20
-5.374715169270833
 30
0.0
  0
SEQEND
  5
77
330
71
100
AcDbEntity
  8
Layer 1
370
    18
  0
POLYLINE
  5
78
330
4A
100
AcDbEntity
  8
Layer 1
 62
   250
370
    18
100
AcDb2dPolyline
 66
     1
 10
0.0
 20
0.0
 30
0.0
  0
VERTEX
  5
79
330
78
100
AcDbEntity
  8
Layer 1
 62
   250
370
    18
100
AcDbVertex
100
AcDb2dVertex
 10
4.577229817708333
 20
-4.874715169270833
 30
0.0
  0
VERTEX
  5
7A
330
78
100
AcDbEntity
  8
Layer 1
 62
   250
370
    18
100
AcDbVertex
100
AcDb2dVertex
 10
4.577229817708333
 20
-4.999715169270833
 30
0.0
  0
VERTEX
  5
7B
330
78
100
AcDbEntity
  8
Layer 1
 62
   250
370
    18
100
AcDbVertex
100
AcDb2dVertex
 10
1.327243381076389
 20
-4.999715169270833
 30
0.0
  0
VERTEX
  5
7C
330
78
100
AcDbEntity
  8
Layer 1
 62
   250
370
    18
100
AcDbVertex
100
AcDb2dVertex
 10
1.327243381076389
 20
-4.874715169270833
 30
0.0
  0
VERTEX
  5
7D
330
78
100
AcDbEntity
  8
Layer 1
 62
   250
370
    18
100
AcDbVertex
100
AcDb2dVertex
 10
4.577229817708333
 20
-4.874715169270833
 30
0.0
  0
SEQEND
  5
7E
330
78
100
AcDbEntity
  8
Layer 1
370
    18
  0
POLYLINE
  5
7F
330
4A
100
AcDbEntity
  8
Layer 1
 62
   250
370
    18
100
AcDb2dPolyline
 66
     1
 10
0.0
 20
0.0
 30
0.0
  0
VERTEX
  5
80
330
7F
100
AcDbEntity
  8
Layer 1
 62
   250
370
    18
100
AcDbVertex
100
AcDb2dVertex
 10
2.327236599392361
 20
-8.124715169270832
 30
0.0
  0
VERTEX
  5
81
330
7F
100
AcDbEntity
  8
Layer 1
 62
   250
370
    18
100
AcDbVertex
100
AcDb2dVertex
 10
2.327236599392361
 20
-8.249715169270832
 30
0.0
  0
VERTEX
  5
82
330
7F
100
AcDbEntity
  8
Layer 1
 62
   250
370
    18
100
AcDbVertex
100
AcDb2dVertex
 10
1.153299967447917
 20
-8.249715169270832
 30
0.0
  0
VERTEX
  5
83
330
7F
100
AcDbEntity
  8
Layer 1
 62
   250
370
    18
100
AcDbVertex
100
AcDb2dVertex
 10
1.153299967447917
 20
-8.124715169270832
 30
0.0
  0
VERTEX
  5
84
330
7F
100
AcDbEntity
  8
Layer 1
 62
   250
370
    18
100
AcDbVertex
100
AcDb2dVertex
 10
2.327236599392361
 20
-8.124715169270832
 30
0.0
  0
SEQEND
  5
85
330
7F
100
AcDbEntity
  8
Layer 1
370
    18
  0
POLYLINE
  5
86
330
4A
100
AcDbEntity
  8
Layer 1
 62
   250
370
    18
100
AcDb2dPolyline
 66
     1
 10
0.0
 20
0.0
 30
0.0
  0
VERTEX
  5
87
330
86
100
AcDbEntity
  8
Layer 1
 62
   250
370
    18
100
AcDbVertex
100
AcDb2dVertex
 10
3.452236599392361
 20
-8.124715169270832
 30
0.0
  0
VERTEX
  5
88
330
86
100
AcDbEntity
  8
Layer 1
 62
   250
370
    18
100
AcDbVertex
100
AcDb2dVertex
 10
3.452236599392361
 20
-8.249715169270832
 30
0.0
  0
VERTEX
  5
89
330
86
100
AcDbEntity
  8
Layer 1
 62
   250
370
    18
100
AcDbVertex
100
AcDb2dVertex
 10
2.452236599392361
 20
-8.249715169270832
 30
0.0
  0
VERTEX
  5
8A
330
86
100
AcDbEntity
  8
Layer 1
 62
   250
370
    18
100
AcDbVertex
100
AcDb2dVertex
 10
2.452236599392361
 20
-8.124715169270832
 30
0.0
  0
VERTEX
  5
8B
330
86
100
AcDbEntity
  8
Layer 1
 62
   250
370
    18
100
AcDbVertex
100
AcDb2dVertex
 10
3.452236599392361
 20
-8.124715169270832
 30
0.0
  0
SEQEND
  5
8C
330
86
100
AcDbEntity
  8
Layer 1
370
    18
  0
POLYLINE
  5
8D
330
4A
100
AcDbEntity
  8
Layer 1
 62
   250
370
    18
100
AcDb2dPolyline
 66
     1
 10
0.0
 20
0.0
 30
0.0
  0
VERTEX
  5
8E
330
8D
100
AcDbEntity
  8
Layer 1
 62
   250
370
    18
100
AcDbVertex
100
AcDb2dVertex
 10
4.741265190972222
 20
-8.124715169270832
 30
0.0
  0
VERTEX
  5
8F
330
8D
100
AcDbEntity
  8
Layer 1
 62
   250
370
    18
100
AcDbVertex
100
AcDb2dVertex
 10
4.741265190972222
 20
-8.249715169270832
 30
0.0
  0
VERTEX
  5
90
330
8D
100
AcDbEntity
  8
Layer 1
 62
   250
370
    18
100
AcDbVertex
100
AcDb2dVertex
 10
3.577236599392361
 20
-8.249715169270832
 30
0.0
  0
VERTEX
  5
91
330
8D
100
AcDbEntity
  8
Layer 1
 62
   250
370
    18
100
AcDbVertex
100
AcDb2dVertex
 10
3.577236599392361
 20
-8.124715169270832
 30
0.0
  0
VERTEX
  5
92
330
8D
100
AcDbEntity
  8
Layer 1
 62
   250
370
    18
100
AcDbVertex
100
AcDb2dVertex
 10
4.741265190972222
 20
-8.124715169270832
 30
0.0
  0
SEQEND
  5
93
330
8D
100
AcDbEntity
  8
Layer 1
370
    18
  0
POLYLINE
  5
94
330
4A
100
AcDbEntity
  8
Layer 1
 62
   250
370
    18
100
AcDb2dPolyline
 66
     1
 10
0.0
 20
0.0
 30
0.0
  0
VERTEX
  5
95
330
94
100
AcDbEntity
  8
Layer 1
 62
   250
370
    18
100
AcDbVertex
100
AcDb2dVertex
 10
2.327236599392361
 20
-7.624715169270833
 30
0.0
  0
VERTEX
  5
96
330
94
100
AcDbEntity
  8
Layer 1
 62
   250
370
    18
100
AcDbVertex
100
AcDb2dVertex
 10
2.327236599392361
 20
-7.749715169270833
 30
0.0
  0
VERTEX
  5
97
330
94
100
AcDbEntity
  8
Layer 1
 62
   250
370
    18
100
AcDbVertex
100
AcDb2dVertex
 10
1.153299967447917
 20
-7.749715169270833
 30
0.0
  0
VERTEX
  5
98
330
94
100
AcDbEntity
  8
Layer 1
 62
   250
370
    18
100
AcDbVertex
100
AcDb2dVertex
 10
1.153299967447917
 20
-7.624715169270833
 30
0.0
  0
VERTEX
  5
99
330
94
100
AcDbEntity
  8
Layer 1
 62
   250
370
    18
100
AcDbVertex
100
AcDb2dVertex
 10
2.327236599392361
 20
-7.624715169270833
 30
0.0
  0
SEQEND
  5
9A
330
94
100
AcDbEntity
  8
Layer 1
370
    18
  0
POLYLINE
  5
9B
330
4A
100
AcDbEntity
  8
Layer 1
 62
   250
370
    18
100
AcDb2dPolyline
 66
     1
 10
0.0
 20
0.0
 30
0.0
  0
VERTEX
  5
9C
330
9B
100
AcDbEntity
  8
Layer 1
 62
   250
370
    18
100
AcDbVertex
100
AcDb2dVertex
 10
3.452236599392361
 20
-7.624715169270833
 30
0.0
  0
VERTEX
  5
9D
330
9B
100
AcDbEntity
  8
Layer 1
 62
   250
370
    18
100
AcDbVertex
100
AcDb2dVertex
 10
3.452236599392361
 20
-7.749715169270833
 30
0.0
  0
VERTEX
  5
9E
330
9B
100
AcDbEntity
  8
Layer 1
 62
   250
370
    18
100
AcDbVertex
100
AcDb2dVertex
 10
2.452236599392361
 20
-7.749715169270833
 30
0.0
  0
VERTEX
  5
9F
330
9B
100
AcDbEntity
  8
Layer 1
 62
   250
370
    18
100
AcDbVertex
100
AcDb2dVertex
 10
2.452236599392361
 20
-7.624715169270833
 30
0.0
  0
VERTEX
  5
A0
330
9B
100
AcDbEntity
  8
Layer 1
 62
   250
370
    18
100
AcDbVertex
100
AcDb2dVertex
 10
3.452236599392361
 20
-7.624715169270833
 30
0.0
  0
SEQEND
  5
A1
330
9B
100
AcDbEntity
  8
Layer 1
370
    18
  0
POLYLINE
  5
A2
330
4A
100
AcDbEntity
  8
Layer 1
 62
   250
370
    18
100
AcDb2dPolyline
 66
     1
 10
0.0
 20
0.0
 30
0.0
  0
VERTEX
  5
A3
330
A2
100
AcDbEntity
  8
Layer 1
 62
   250
370
    18
100
AcDbVertex
100
AcDb2dVertex
 10
4.741265190972222
 20
-7.624715169270833
 30
0.0
  0
VERTEX
  5
A4
330
A2
100
AcDbEntity
  8
Layer 1
 62
   250
370
    18
100
AcDbVertex
100
AcDb2dVertex
 10
4.741265190972222
 20
-7.749715169270833
 30
0.0
  0
VERTEX
  5
A5
330
A2
100
AcDbEntity
  8
Layer 1
 62
   250
370
    18
100
AcDbVertex
100
AcDb2dVertex
 10
3.577236599392361
 20
-7.749715169270833
 30
0.0
  0
VERTEX
  5
A6
330
A2
100
AcDbEntity
  8
Layer 1
 62
   250
370
    18
100
AcDbVertex
100
AcDb2dVertex
 10
3.577236599392361
 20
-7.624715169270833
 30
0.0
  0
VERTEX
  5
A7
330
A2
100
AcDbEntity
  8
Layer 1
 62
   250
370
    18
100
AcDbVertex
100
AcDb2dVertex
 10
4.741265190972222
 20
-7.624715169270833
 30
0.0
  0
SEQEND
  5
A8
330
A2
100
AcDbEntity
  8
Layer 1
370
    18
  0
POLYLINE
  5
A9
330
4A
100
AcDbEntity
  8
Layer 1
 62
   250
370
    18
100
AcDb2dPolyline
 66
     1
 10
0.0
 20
0.0
 30
0.0
  0
VERTEX
  5
AA
330
A9
100
AcDbEntity
  8
Layer 1
 62
   250
370
    18
100
AcDbVertex
100
AcDb2dVertex
 10
2.327236599392361
 20
-7.124715169270833
 30
0.0
  0
VERTEX
  5
AB
330
A9
100
AcDbEntity
  8
Layer 1
 62
   250
370
    18
100
AcDbVertex
100
AcDb2dVertex
 10
2.327236599392361
 20
-7.249715169270833
 30
0.0
  0
VERTEX
  5
AC
330
A9
100
AcDbEntity
  8
Layer 1
 62
   250
370
    18
100
AcDbVertex
100
AcDb2dVertex
 10
1.153299967447917
 20
-7.249715169270833
 30
0.0
  0
VERTEX
  5
AD
330
A9
100
AcDbEntity
  8
Layer 1
 62
   250
370
    18
100
AcDbVertex
100
AcDb2dVertex
 10
1.153299967447917
 20
-7.124715169270833
 30
0.0
  0
VERTEX
  5
AE
330
A9
100
AcDbEntity
  8
Layer 1
 62
   250
370
    18
100
AcDbVertex
100
AcDb2dVertex
 10
2.327236599392361
 20
-7.124715169270833
 30
0.0
  0
SEQEND
  5
AF
330
A9
100
AcDbEntity
  8
Layer 1
370
    18
  0
POLYLINE
  5
B0
330
4A
100
AcDbEntity
  8
Layer 1
 62
   250
370
    18
100
AcDb2dPolyline
 66
     1
 10
0.0
 20
0.0
 30
0.0
  0
VERTEX
  5
B1
330
B0
100
AcDbEntity
  8
Layer 1
 62
   250
370
    18
100
AcDbVertex
100
AcDb2dVertex
 10
3.452236599392361
 20
-7.124715169270833
 30
0.0
  0
VERTEX
  5
B2
330
B0
100
AcDbEntity
  8
Layer 1
 62
   250
370
    18
100
AcDbVertex
100
AcDb2dVertex
 10
3.452236599392361
 20
-7.249715169270833
 30
0.0
  0
VERTEX
  5
B3
330
B0
100
AcDbEntity
  8
Layer 1
 62
   250
370
    18
100
AcDbVertex
100
AcDb2dVertex
 10
2.452236599392361
 20
-7.249715169270833
 30
0.0
  0
VERTEX
  5
B4
330
B0
100
AcDbEntity
  8
Layer 1
 62
   250
370
    18
100
AcDbVertex
100
AcDb2dVertex
 10
2.452236599392361
 20
-7.124715169270833
 30
0.0
  0
VERTEX
  5
B5
330
B0
100
AcDbEntity
  8
Layer 1
 62
   250
370
    18
100
AcDbVertex
100
AcDb2dVertex
 10
3.452236599392361
 20
-7.124715169270833
 30
0.0
  0
SEQEND
  5
B6
330
B0
100
AcDbEntity
  8
Layer 1
370
    18
  0
POLYLINE
  5
B7
330
4A
100
AcDbEntity
  8
Layer 1
 62
   250
370
    18
100
AcDb2dPolyline
 66
     1
 10
0.0
 20
0.0
 30
0.0
  0
VERTEX
  5
B8
330
B7
100
AcDbEntity
  8
Layer 1
 62
   250
370
    18
100
AcDbVertex
100
AcDb2dVertex
 10
4.741265190972222
 20
-7.124715169270833
 30
0.0
  0
VERTEX
  5
B9
330
B7
100
AcDbEntity
  8
Layer 1
 62
   250
370
    18
100
AcDbVertex
100
AcDb2dVertex
 10
4.741265190972222
 20
-7.249715169270833
 30
0.0
  0
VERTEX
  5
BA
330
B7
100
AcDbEntity
  8
Layer 1
 62
   250
370
    18
100
AcDbVertex
100
AcDb2dVertex
 10
3.577236599392361
 20
-7.249715169270833
 30
0.0
  0
VERTEX
  5
BB
330
B7
100
AcDbEntity
  8
Layer 1
 62
   250
370
    18
100
AcDbVertex
100
AcDb2dVertex
 10
3.577236599392361
 20
-7.124715169270833
 30
0.0
  0
VERTEX
  5
BC
330
B7
100
AcDbEntity
  8
Layer 1
 62
   250
370
    18
100
AcDbVertex
100
AcDb2dVertex
 10
4.741265190972222
 20
-7.124715169270833
 30
0.0
  0
SEQEND
  5
BD
330
B7
100
AcDbEntity
  8
Layer 1
370
    18
  0
POLYLINE
  5
BE
330
4A
100
AcDbEntity
  8
Layer 1
 62
   250
370
    18
100
AcDb2dPolyline
 66
     1
 10
0.0
 20
0.0
 30
0.0
  0
VERTEX
  5
BF
330
BE
100
AcDbEntity
  8
Layer 1
 62
   250
370
    18
100
AcDbVertex
100
AcDb2dVertex
 10
2.327236599392361
 20
-6.624715169270833
 30
0.0
  0
VERTEX
  5
C0
330
BE
100
AcDbEntity
  8
Layer 1
 62
   250
370
    18
100
AcDbVertex
100
AcDb2dVertex
 10
2.327236599392361
 20
-6.749715169270833
 30
0.0
  0
VERTEX
  5
C1
330
BE
100
AcDbEntity
  8
Layer 1
 62
   250
370
    18
100
AcDbVertex
100
AcDb2dVertex
 10
1.153299967447917
 20
-6.749715169270833
 30
0.0
  0
VERTEX
  5
C2
330
BE
100
AcDbEntity
  8
Layer 1
 62
   250
370
    18
100
AcDbVertex
100
AcDb2dVertex
 10
1.153299967447917
 20
-6.624715169270833
 30
0.0
  0
VERTEX
  5
C3
330
BE
100
AcDbEntity
  8
Layer 1
 62
   250
370
    18
100
AcDbVertex
100
AcDb2dVertex
 10
2.327236599392361
 20
-6.624715169270833
 30
0.0
  0
SEQEND
  5
C4
330
BE
100
AcDbEntity
  8
Layer 1
370
    18
  0
POLYLINE
  5
C5
330
4A
100
AcDbEntity
  8
Layer 1
 62
   250
370
    18
100
AcDb2dPolyline
 66
     1
 10
0.0
 20
0.0
 30
0.0
  0
VERTEX
  5
C6
330
C5
100
AcDbEntity
  8
Layer 1
 62
   250
370
    18
100
AcDbVertex
100
AcDb2dVertex
 10
3.452236599392361
 20
-6.624715169270833
 30
0.0
  0
VERTEX
  5
C7
330
C5
100
AcDbEntity
  8
Layer 1
 62
   250
370
    18
100
AcDbVertex
100
AcDb2dVertex
 10
3.452236599392361
 20
-6.749715169270833
 30
0.0
  0
VERTEX
  5
C8
330
C5
100
AcDbEntity
  8
Layer 1
 62
   250
370
    18
100
AcDbVertex
100
AcDb2dVertex
 10
2.452236599392361
 20
-6.749715169270833
 30
0.0
  0
VERTEX
  5
C9
330
C5
100
AcDbEntity
  8
Layer 1
 62
   250
370
    18
100
AcDbVertex
100
AcDb2dVertex
 10
2.452236599392361
 20
-6.624715169270833
 30
0.0
  0
VERTEX
  5
CA
330
C5
100
AcDbEntity
  8
Layer 1
 62
   250
370
    18
100
AcDbVertex
100
AcDb2dVertex
 10
3.452236599392361
 20
-6.624715169270833
 30
0.0
  0
SEQEND
  5
CB
330
C5
100
AcDbEntity
  8
Layer 1
370
    18
  0
POLYLINE
  5
CC
330
4A
100
AcDbEntity
  8
Layer 1
 62
   250
370
    18
100
AcDb2dPolyline
 66
     1
 10
0.0
 20
0.0
 30
0.0
  0
VERTEX
  5
CD
330
CC
100
AcDbEntity
  8
Layer 1
 62
   250
370
    18
100
AcDbVertex
100
AcDb2dVertex
 10
4.741265190972222
 20
-6.624715169270833
 30
0.0
  0
VERTEX
  5
CE
330
CC
100
AcDbEntity
  8
Layer 1
 62
   250
370
    18
100
AcDbVertex
100
AcDb2dVertex
 10
4.741265190972222
 20
-6.749715169270833
 30
0.0
  0
VERTEX
  5
CF
330
CC
100
AcDbEntity
  8
Layer 1
 62
   250
370
    18
100
AcDbVertex
100
AcDb2dVertex
 10
3.577236599392361
 20
-6.749715169270833
 30
0.0
  0
VERTEX
  5
D0
330
CC
100
AcDbEntity
  8
Layer 1
 62
   250
370
    18
100
AcDbVertex
100
AcDb2dVertex
 10
3.577236599392361
 20
-6.624715169270833
 30
0.0
  0
VERTEX
  5
D1
330
CC
100
AcDbEntity
  8
Layer 1
 62
   250
370
    18
100
AcDbVertex
100
AcDb2dVertex
 10
4.741265190972222
 20
-6.624715169270833
 30
0.0
  0
SEQEND
  5
D2
330
CC
100
AcDbEntity
  8
Layer 1
370
    18
  0
POLYLINE
  5
D3
330
4A
100
AcDbEntity
  8
Layer 1
 62
   250
370
    18
100
AcDb2dPolyline
 66
     1
 10
0.0
 20
0.0
 30
0.0
  0
VERTEX
  5
D4
330
D3
100
AcDbEntity
  8
Layer 1
 62
   250
370
    18
100
AcDbVertex
100
AcDb2dVertex
 10
2.327236599392361
 20
-6.124715169270833
 30
0.0
  0
VERTEX
  5
D5
330
D3
100
AcDbEntity
  8
Layer 1
 62
   250
370
    18
100
AcDbVertex
100
AcDb2dVertex
 10
2.327236599392361
 20
-6.249715169270833
 30
0.0
  0
VERTEX
  5
D6
330
D3
100
AcDbEntity
  8
Layer 1
 62
   250
370
    18
100
AcDbVertex
100
AcDb2dVertex
 10
1.153299967447917
 20
-6.249715169270833
 30
0.0
  0
VERTEX
  5
D7
330
D3
100
AcDbEntity
  8
Layer 1
 62
   250
370
    18
100
AcDbVertex
100
AcDb2dVertex
 10
1.153299967447917
 20
-6.124715169270833
 30
0.0
  0
VERTEX
  5
D8
330
D3
100
AcDbEntity
  8
Layer 1
 62
   250
370
    18
100
AcDbVertex
100
AcDb2dVertex
 10
2.327236599392361
 20
-6.124715169270833
 30
0.0
  0
SEQEND
  5
D9
330
D3
100
AcDbEntity
  8
Layer 1
370
    18
  0
POLYLINE
  5
DA
330
4A
100
AcDbEntity
  8
Layer 1
 62
   250
370
    18
100
AcDb2dPolyline
 66
     1
 10
0.0
 20
0.0
 30
0.0
  0
VERTEX
  5
DB
330
DA
100
AcDbEntity
  8
Layer 1
 62
   250
370
    18
100
AcDbVertex
100
AcDb2dVertex
 10
3.452236599392361
 20
-6.124715169270833
 30
0.0
  0
VERTEX
  5
DC
330
DA
100
AcDbEntity
  8
Layer 1
 62
   250
370
    18
100
AcDbVertex
100
AcDb2dVertex
 10
3.452236599392361
 20
-6.249715169270833
 30
0.0
  0
VERTEX
  5
DD
330
DA
100
AcDbEntity
  8
Layer 1
 62
   250
370
    18
100
AcDbVertex
100
AcDb2dVertex
 10
2.452236599392361
 20
-6.249715169270833
 30
0.0
  0
VERTEX
  5
DE
330
DA
100
AcDbEntity
  8
Layer 1
 62
   250
370
    18
100
AcDbVertex
100
AcDb2dVertex
 10
2.452236599392361
 20
-6.124715169270833
 30
0.0
  0
VERTEX
  5
DF
330
DA
100
AcDbEntity
  8
Layer 1
 62
   250
370
    18
100
AcDbVertex
100
AcDb2dVertex
 10
3.452236599392361
 20
-6.124715169270833
 30
0.0
  0
SEQEND
  5
E0
330
DA
100
AcDbEntity
  8
Layer 1
370
    18
  0
POLYLINE
  5
E1
330
4A
100
AcDbEntity
  8
Layer 1
 62
   250
370
    18
100
AcDb2dPolyline
 66
     1
 10
0.0
 20
0.0
 30
0.0
  0
VERTEX
  5
E2
330
E1
100
AcDbEntity
  8
Layer 1
 62
   250
370
    18
100
AcDbVertex
100
AcDb2dVertex
 10
4.741265190972222
 20
-6.124715169270833
 30
0.0
  0
VERTEX
  5
E3
330
E1
100
AcDbEntity
  8
Layer 1
 62
   250
370
    18
100
AcDbVertex
100
AcDb2dVertex
 10
4.741265190972222
 20
-6.249715169270833
 30
0.0
  0
VERTEX
  5
E4
330
E1
100
AcDbEntity
  8
Layer 1
 62
   250
370
    18
100
AcDbVertex
100
AcDb2dVertex
 10
3.577236599392361
 20
-6.249715169270833
 30
0.0
  0
VERTEX
  5
E5
330
E1
100
AcDbEntity
  8
Layer 1
 62
   250
370
    18
100
AcDbVertex
100
AcDb2dVertex
 10
3.577236599392361
 20
-6.124715169270833
 30
0.0
  0
VERTEX
  5
E6
330
E1
100
AcDbEntity
  8
Layer 1
 62
   250
370
    18
100
AcDbVertex
100
AcDb2dVertex
 10
4.741265190972222
 20
-6.124715169270833
 30
0.0
  0
SEQEND
  5
E7
330
E1
100
AcDbEntity
  8
Layer 1
370
    18
  0
POLYLINE
  5
E8
330
4A
100
AcDbEntity
  8
Layer 1
 62
   250
370
    18
100
AcDb2dPolyline
 66
     1
 10
0.0
 20
0.0
 30
0.0
  0
VERTEX
  5
E9
330
E8
100
AcDbEntity
  8
Layer 1
 62
   250
370
    18
100
AcDbVertex
100
AcDb2dVertex
 10
2.327236599392361
 20
-5.624715169270833
 30
0.0
  0
VERTEX
  5
EA
330
E8
100
AcDbEntity
  8
Layer 1
 62
   250
370
    18
100
AcDbVertex
100
AcDb2dVertex
 10
2.327236599392361
 20
-5.749715169270833
 30
0.0
  0
VERTEX
  5
EB
330
E8
100
AcDbEntity
  8
Layer 1
 62
   250
370
    18
100
AcDbVertex
100
AcDb2dVertex
 10
1.153299967447917
 20
-5.749715169270833
 30
0.0
  0
VERTEX
  5
EC
330
E8
100
AcDbEntity
  8
Layer 1
 62
   250
370
    18
100
AcDbVertex
100
AcDb2dVertex
 10
1.153299967447917
 20
-5.624715169270833
 30
0.0
  0
VERTEX
  5
ED
330
E8
100
AcDbEntity
  8
Layer 1
 62
   250
370
    18
100
AcDbVertex
100
AcDb2dVertex
 10
2.327236599392361
 20
-5.624715169270833
 30
0.0
  0
SEQEND
  5
EE
330
E8
100
AcDbEntity
  8
Layer 1
370
    18
  0
POLYLINE
  5
EF
330
4A
100
AcDbEntity
  8
Layer 1
 62
   250
370
    18
100
AcDb2dPolyline
 66
     1
 10
0.0
 20
0.0
 30
0.0
  0
VERTEX
  5
F0
330
EF
100
AcDbEntity
  8
Layer 1
 62
   250
370
    18
100
AcDbVertex
100
AcDb2dVertex
 10
3.452236599392361
 20
-5.624715169270833
 30
0.0
  0
VERTEX
  5
F1
330
EF
100
AcDbEntity
  8
Layer 1
 62
   250
370
    18
100
AcDbVertex
100
AcDb2dVertex
 10
3.452236599392361
 20
-5.749715169270833
 30
0.0
  0
VERTEX
  5
F2
330
EF
100
AcDbEntity
  8
Layer 1
 62
   250
370
    18
100
AcDbVertex
100
AcDb2dVertex
 10
2.452236599392361
 20
-5.749715169270833
 30
0.0
  0
VERTEX
  5
F3
330
EF
100
AcDbEntity
  8
Layer 1
 62
   250
370
    18
100
AcDbVertex
100
AcDb2dVertex
 10
2.452236599392361
 20
-5.624715169270833
 30
0.0
  0
VERTEX
  5
F4
330
EF
100
AcDbEntity
  8
Layer 1
 62
   250
370
    18
100
AcDbVertex
100
AcDb2dVertex
 10
3.452236599392361
 20
-5.624715169270833
 30
0.0
  0
SEQEND
  5
F5
330
EF
100
AcDbEntity
  8
Layer 1
370
    18
  0
POLYLINE
  5
F6
330
4A
100
AcDbEntity
  8
Layer 1
 62
   250
370
    18
100
AcDb2dPolyline
 66
     1
 10
0.0
 20
0.0
 30
0.0
  0
VERTEX
  5
F7
330
F6
100
AcDbEntity
  8
Layer 1
 62
   250
370
    18
100
AcDbVertex
100
AcDb2dVertex
 10
4.741265190972222
 20
-5.624715169270833
 30
0.0
  0
VERTEX
  5
F8
330
F6
100
AcDbEntity
  8
Layer 1
 62
   250
370
    18
100
AcDbVertex
100
AcDb2dVertex
 10
4.741265190972222
 20
-5.749715169270833
 30
0.0
  0
VERTEX
  5
F9
330
F6
100
AcDbEntity
  8
Layer 1
 62
   250
370
    18
100
AcDbVertex
100
AcDb2dVertex
 10
3.577236599392361
 20
-5.749715169270833
 30
0.0
  0
VERTEX
  5
FA
330
F6
100
AcDbEntity
  8
Layer 1
 62
   250
370
    18
100
AcDbVertex
100
AcDb2dVertex
 10
3.577236599392361
 20
-5.624715169270833
 30
0.0
  0
VERTEX
  5
FB
330
F6
100
AcDbEntity
  8
Layer 1
 62
   250
370
    18
100
AcDbVertex
100
AcDb2dVertex
 10
4.741265190972222
 20
-5.624715169270833
 30
0.0
  0
SEQEND
  5
FC
330
F6
100
AcDbEntity
  8
Layer 1
370
    18
  0
POLYLINE
  5
FD
330
4A
100
AcDbEntity
  8
Layer 1
 62
   250
370
    18
100
AcDb2dPolyline
 66
     1
 10
0.0
 20
0.0
 30
0.0
  0
VERTEX
  5
FE
330
FD
100
AcDbEntity
  8
Layer 1
 62
   250
370
    18
100
AcDbVertex
100
AcDb2dVertex
 10
2.327236599392361
 20
-5.124715169270833
 30
0.0
  0
VERTEX
  5
FF
330
FD
100
AcDbEntity
  8
Layer 1
 62
   250
370
    18
100
AcDbVertex
100
AcDb2dVertex
 10
2.327236599392361
 20
-5.249715169270833
 30
0.0
  0
VERTEX
  5
100
330
FD
100
AcDbEntity
  8
Layer 1
 62
   250
370
    18
100
AcDbVertex
100
AcDb2dVertex
 10
1.153299967447917
 20
-5.249715169270833
 30
0.0
  0
VERTEX
  5
101
330
FD
100
AcDbEntity
  8
Layer 1
 62
   250
370
    18
100
AcDbVertex
100
AcDb2dVertex
 10
1.153299967447917
 20
-5.124715169270833
 30
0.0
  0
VERTEX
  5
102
330
FD
100
AcDbEntity
  8
Layer 1
 62
   250
370
    18
100
AcDbVertex
100
AcDb2dVertex
 10
2.327236599392361
 20
-5.124715169270833
 30
0.0
  0
SEQEND
  5
103
330
FD
100
AcDbEntity
  8
Layer 1
370
    18
  0
POLYLINE
  5
104
330
4A
100
AcDbEntity
  8
Layer 1
 62
   250
370
    18
100
AcDb2dPolyline
 66
     1
 10
0.0
 20
0.0
 30
0.0
  0
VERTEX
  5
105
330
104
100
AcDbEntity
  8
Layer 1
 62
   250
370
    18
100
AcDbVertex
100
AcDb2dVertex
 10
3.452236599392361
 20
-5.124715169270833
 30
0.0
  0
VERTEX
  5
106
330
104
100
AcDbEntity
  8
Layer 1
 62
   250
370
    18
100
AcDbVertex
100
AcDb2dVertex
 10
3.452236599392361
 20
-5.249715169270833
 30
0.0
  0
VERTEX
  5
107
330
104
100
AcDbEntity
  8
Layer 1
 62
   250
370
    18
100
AcDbVertex
100
AcDb2dVertex
 10
2.452236599392361
 20
-5.249715169270833
 30
0.0
  0
VERTEX
  5
108
330
104
100
AcDbEntity
  8
Layer 1
 62
   250
370
    18
100
AcDbVertex
100
AcDb2dVertex
 10
2.452236599392361
 20
-5.124715169270833
 30
0.0
  0
VERTEX
  5
109
330
104
100
AcDbEntity
  8
Layer 1
 62
   250
370
    18
100
AcDbVertex
100
AcDb2dVertex
 10
3.452236599392361
 20
-5.124715169270833
 30
0.0
  0
SEQEND
  5
10A
330
104
100
AcDbEntity
  8
Layer 1
370
    18
  0
POLYLINE
  5
10B
330
4A
100
AcDbEntity
  8
Layer 1
 62
   250
370
    18
100
AcDb2dPolyline
 66
     1
 10
0.0
 20
0.0
 30
0.0
  0
VERTEX
  5
10C
330
10B
100
AcDbEntity
  8
Layer 1
 62
   250
370
    18
100
AcDbVertex
100
AcDb2dVertex
 10
4.741265190972222
 20
-5.124715169270833
 30
0.0
  0
VERTEX
  5
10D
330
10B
100
AcDbEntity
  8
Layer 1
 62
   250
370
    18
100
AcDbVertex
100
AcDb2dVertex
 10
4.741265190972222
 20
-5.249715169270833
 30
0.0
  0
VERTEX
  5
10E
330
10B
100
AcDbEntity
  8
Layer 1
 62
   250
370
    18
100
AcDbVertex
100
AcDb2dVertex
 10
3.577236599392361
 20
-5.249715169270833
 30
0.0
  0
VERTEX
  5
10F
330
10B
100
AcDbEntity
  8
Layer 1
 62
   250
370
    18
100
AcDbVertex
100
AcDb2dVertex
 10
3.577236599392361
 20
-5.124715169270833
 30
0.0
  0
VERTEX
  5
110
330
10B
100
AcDbEntity
  8
Layer 1
 62
   250
370
    18
100
AcDbVertex
100
AcDb2dVertex
 10
4.741265190972222
 20
-5.124715169270833
 30
0.0
  0
SEQEND
  5
111
330
10B
100
AcDbEntity
  8
Layer 1
370
    18
  0
ENDBLK
  5
4D
330
4A
100
AcDbEntity
  8
0
100
AcDbBlockEnd
  0
BLOCK
  5
11B
330
119
100
AcDbEntity
  8
0
100
AcDbBlockBegin
  2
block 3
 70
     0
 71
     0
 10
0.0
 20
0.0
 30
0.0
  3
block 3
  1

  0
POLYLINE
  5
11D
330
119
100
AcDbEntity
  8
Layer 1
 62
   250
370
    18
100
AcDb2dPolyline
 66
     1
 10
0.0
 20
0.0
 30
0.0
  0
VERTEX
  5
11E
330
11D
100
AcDbEntity
  8
Layer 1
 62
   250
370
    18
100
AcDbVertex
100
AcDb2dVertex
 10
4.577229817708333
 20
-3.668924967447917
 30
0.0
  0
VERTEX
  5
11F
330
11D
100
AcDbEntity
  8
Layer 1
 62
   250
370
    18
100
AcDbVertex
100
AcDb2dVertex
 10
4.577229817708333
 20
-3.793924967447917
 30
0.0
  0
VERTEX
  5
120
330
11D
100
AcDbEntity
  8
Layer 1
 62
   250
370
    18
100
AcDbVertex
100
AcDb2dVertex
 10
1.327243381076389
 20
-3.793924967447917
 30
0.0
  0
VERTEX
  5
121
330
11D
100
AcDbEntity
  8
Layer 1
 62
   250
370
    18
100
AcDbVertex
100
AcDb2dVertex
 10
1.327243381076389
 20
-3.668924967447917
 30
0.0
  0
VERTEX
  5
122
330
11D
100
AcDbEntity
  8
Layer 1
 62
   250
370
    18
100
AcDbVertex
100
AcDb2dVertex
 10
4.577229817708333
 20
-3.668924967447917
 30
0.0
  0
SEQEND
  5
123
330
11D
100
AcDbEntity
  8
Layer 1
370
    18
  0
POLYLINE
  5
124
330
119
100
AcDbEntity
  8
Layer 1
 62
   250
370
    18
100
AcDb2dPolyline
 66
     1
 10
0.0
 20
0.0
 30
0.0
  0
VERTEX
  5
125
330
124
100
AcDbEntity
  8
Layer 1
 62
   250
370
    18
100
AcDbVertex
100
AcDb2dVertex
 10
4.577229817708333
 20
-3.168924967447917
 30
0.0
  0
VERTEX
  5
126
330
124
100
AcDbEntity
  8
Layer 1
 62
   250
370
    18
100
AcDbVertex
100
AcDb2dVertex
 10
4.577229817708333
 20
-3.293924967447917
 30
0.0
  0
VERTEX
  5
127
330
124
100
AcDbEntity
  8
Layer 1
 62
   250
370
    18
100
AcDbVertex
100
AcDb2dVertex
 10
1.327243381076389
 20
-3.293924967447917
 30
0.0
  0
VERTEX
  5
128
330
124
100
AcDbEntity
  8
Layer 1
 62
   250
370
    18
100
AcDbVertex
100
AcDb2dVertex
 10
1.327243381076389
 20
-3.168924967447917
 30
0.0
  0
VERTEX
  5
129
330
124
100
AcDbEntity
  8
Layer 1
 62
   250
370
    18
100
AcDbVertex
100
AcDb2dVertex
 10
4.577229817708333
 20
-3.168924967447917
 30
0.0
  0
SEQEND
  5
12A
330
124
100
AcDbEntity
  8
Layer 1
370
    18
  0
POLYLINE
  5
12B
330
119
100
AcDbEntity
  8
Layer 1
 62
   250
370
    18
100
AcDb2dPolyline
 66
     1
 10
0.0
 20
0.0
 30
0.0
  0
VERTEX
  5
12C
330
12B
100
AcDbEntity
  8
Layer 1
 62
   250
370
    18
100
AcDbVertex
100
AcDb2dVertex
 10
4.577229817708333
 20
-2.668924967447917
 30
0.0
  0
VERTEX
  5
12D
330
12B
100
AcDbEntity
  8
Layer 1
 62
   250
370
    18
100
AcDbVertex
100
AcDb2dVertex
 10
4.577229817708333
 20
-2.793924967447917
 30
0.0
  0
VERTEX
  5
12E
330
12B
100
AcDbEntity
  8
Layer 1
 62
   250
370
    18
100
AcDbVertex
100
AcDb2dVertex
 10
1.327243381076389
 20
-2.793924967447917
 30
0.0
  0
VERTEX
  5
12F
330
12B
100
AcDbEntity
  8
Layer 1
 62
   250
370
    18
100
AcDbVertex
100
AcDb2dVertex
 10
1.327243381076389
 20
-2.668924967447917
 30
0.0
  0
VERTEX
  5
130
330
12B
100
AcDbEntity
  8
Layer 1
 62
   250
370
    18
100
AcDbVertex
100
AcDb2dVertex
 10
4.577229817708333
 20
-2.668924967447917
 30
0.0
  0
SEQEND
  5
131
330
12B
100
AcDbEntity
  8
Layer 1
370
    18
  0
POLYLINE
  5
132
330
119
100
AcDbEntity
  8
Layer 1
 62
   250
370
    18
100
AcDb2dPolyline
 66
     1
 10
0.0
 20
0.0
 30
0.0
  0
VERTEX
  5
133
330
132
100
AcDbEntity
  8
Layer 1
 62
   250
370
    18
100
AcDbVertex
100
AcDb2dVertex
 10
4.577229817708333
 20
-2.168924967447917
 30
0.0
  0
VERTEX
  5
134
330
132
100
AcDbEntity
  8
Layer 1
 62
   250
370
    18
100
AcDbVertex
100
AcDb2dVertex
 10
4.577229817708333
 20
-2.293924967447917
 30
0.0
  0
VERTEX
  5
135
330
132
100
AcDbEntity
  8
Layer 1
 62
   250
370
    18
100
AcDbVertex
100
AcDb2dVertex
 10
1.327243381076389
 20
-2.293924967447917
 30
0.0
  0
VERTEX
  5
136
330
132
100
AcDbEntity
  8
Layer 1
 62
   250
370
    18
100
AcDbVertex
100
AcDb2dVertex
 10
1.327243381076389
 20
-2.168924967447917
 30
0.0
  0
VERTEX
  5
137
330
132
100
AcDbEntity
  8
Layer 1
 62
   250
370
    18
100
AcDbVertex
100
AcDb2dVertex
 10
4.577229817708333
 20
-2.168924967447917
 30
0.0
  0
SEQEND
  5
138
330
132
100
AcDbEntity
  8
Layer 1
370
    18
  0
POLYLINE
  5
139
330
119
100
AcDbEntity
  8
Layer 1
 62
   250
370
    18
100
AcDb2dPolyline
 66
     1
 10
0.0
 20
0.0
 30
0.0
  0
VERTEX
  5
13A
330
139
100
AcDbEntity
  8
Layer 1
 62
   250
370
    18
100
AcDbVertex
100
AcDb2dVertex
 10
4.577229817708333
 20
-1.668924967447917
 30
0.0
  0
VERTEX
  5
13B
330
139
100
AcDbEntity
  8
Layer 1
 62
   250
370
    18
100
AcDbVertex
100
AcDb2dVertex
 10
4.577229817708333
 20
-1.793924967447917
 30
0.0
  0
VERTEX
  5
13C
330
139
100
AcDbEntity
  8
Layer 1
 62
   250
370
    18
100
AcDbVertex
100
AcDb2dVertex
 10
1.327243381076389
 20
-1.793924967447917
 30
0.0
  0
VERTEX
  5
13D
330
139
100
AcDbEntity
  8
Layer 1
 62
   250
370
    18
100
AcDbVertex
100
AcDb2dVertex
 10
1.327243381076389
 20
-1.668924967447917
 30
0.0
  0
VERTEX
  5
13E
330
139
100
AcDbEntity
  8
Layer 1
 62
   250
370
    18
100
AcDbVertex
100
AcDb2dVertex
 10
4.577229817708333
 20
-1.668924967447917
 30
0.0
  0
SEQEND
  5
13F
330
139
100
AcDbEntity
  8
Layer 1
370
    18
  0
POLYLINE
  5
140
330
119
100
AcDbEntity
  8
Layer 1
 62
   250
370
    18
100
AcDb2dPolyline
 66
     1
 10
0.0
 20
0.0
 30
0.0
  0
VERTEX
  5
141
330
140
100
AcDbEntity
  8
Layer 1
 62
   250
370
    18
100
AcDbVertex
100
AcDb2dVertex
 10
4.577229817708333
 20
-1.168924967447917
 30
0.0
  0
VERTEX
  5
142
330
140
100
AcDbEntity
  8
Layer 1
 62
   250
370
    18
100
AcDbVertex
100
AcDb2dVertex
 10
4.577229817708333
 20
-1.293924967447917
 30
0.0
  0
VERTEX
  5
143
330
140
100
AcDbEntity
  8
Layer 1
 62
   250
370
    18
100
AcDbVertex
100
AcDb2dVertex
 10
1.327243381076389
 20
-1.293924967447917
 30
0.0
  0
VERTEX
  5
144
330
140
100
AcDbEntity
  8
Layer 1
 62
   250
370
    18
100
AcDbVertex
100
AcDb2dVertex
 10
1.327243381076389
 20
-1.168924967447917
 30
0.0
  0
VERTEX
  5
145
330
140
100
AcDbEntity
  8
Layer 1
 62
   250
370
    18
100
AcDbVertex
100
AcDb2dVertex
 10
4.577229817708333
 20
-1.168924967447917
 30
0.0
  0
SEQEND
  5
146
330
140
100
AcDbEntity
  8
Layer 1
370
    18
  0
POLYLINE
  5
147
330
119
100
AcDbEntity
  8
Layer 1
 62
   250
370
    18
100
AcDb2dPolyline
 66
     1
 10
0.0
 20
0.0
 30
0.0
  0
VERTEX
  5
148
330
147
100
AcDbEntity
  8
Layer 1
 62
   250
370
    18
100
AcDbVertex
100
AcDb2dVertex
 10
4.577229817708333
 20
-0.6689249674479166
 30
0.0
  0
VERTEX
  5
149
330
147
100
AcDbEntity
  8
Layer 1
 62
   250
370
    18
100
AcDbVertex
100
AcDb2dVertex
 10
4.577229817708333
 20
-0.7939249674479166
 30
0.0
  0
VERTEX
  5
14A
330
147
100
AcDbEntity
  8
Layer 1
 62
   250
370
    18
100
AcDbVertex
100
AcDb2dVertex
 10
1.327243381076389
 20
-0.7939249674479166
 30
0.0
  0
VERTEX
  5
14B
330
147
100
AcDbEntity
  8
Layer 1
 62
   250
370
    18
100
AcDbVertex
100
AcDb2dVertex
 10
1.327243381076389
 20
-0.6689249674479166
 30
0.0
  0
VERTEX
  5
14C
330
147
100
AcDbEntity
  8
Layer 1
 62
   250
370
    18
100
AcDbVertex
100
AcDb2dVertex
 10
4.577229817708333
 20
-0.6689249674479166
 30
0.0
  0
SEQEND
  5
14D
330
147
100
AcDbEntity
  8
Layer 1
370
    18
  0
POLYLINE
  5
14E
330
119
100
AcDbEntity
  8
Layer 1
 62
   250
370
    18
100
AcDb2dPolyline
 66
     1
 10
0.0
 20
0.0
 30
0.0
  0
VERTEX
  5
14F
330
14E
100
AcDbEntity
  8
Layer 1
 62
   250
370
    18
100
AcDbVertex
100
AcDb2dVertex
 10
2.327236599392361
 20
-3.918924967447917
 30
0.0
  0
VERTEX
  5
150
330
14E
100
AcDbEntity
  8
Layer 1
 62
   250
370
    18
100
AcDbVertex
100
AcDb2dVertex
 10
2.327236599392361
 20
-4.043924967447916
 30
0.0
  0
VERTEX
  5
151
330
14E
100
AcDbEntity
  8
Layer 1
 62
   250
370
    18
100
AcDbVertex
100
AcDb2dVertex
 10
1.153299967447917
 20
-4.043924967447916
 30
0.0
  0
VERTEX
  5
152
330
14E
100
AcDbEntity
  8
Layer 1
 62
   250
370
    18
100
AcDbVertex
100
AcDb2dVertex
 10
1.153299967447917
 20
-3.918924967447917
 30
0.0
  0
VERTEX
  5
153
330
14E
100
AcDbEntity
  8
Layer 1
 62
   250
370
    18
100
AcDbVertex
100
AcDb2dVertex
 10
2.327236599392361
 20
-3.918924967447917
 30
0.0
  0
SEQEND
  5
154
330
14E
100
AcDbEntity
  8
Layer 1
370
    18
  0
POLYLINE
  5
155
330
119
100
AcDbEntity
  8
Layer 1
 62
   250
370
    18
100
AcDb2dPolyline
 66
     1
 10
0.0
 20
0.0
 30
0.0
  0
VERTEX
  5
156
330
155
100
AcDbEntity
  8
Layer 1
 62
   250
370
    18
100
AcDbVertex
100
AcDb2dVertex
 10
3.452236599392361
 20
-3.918924967447917
 30
0.0
  0
VERTEX
  5
157
330
155
100
AcDbEntity
  8
Layer 1
 62
   250
370
    18
100
AcDbVertex
100
AcDb2dVertex
 10
3.452236599392361
 20
-4.043924967447916
 30
0.0
  0
VERTEX
  5
158
330
155
100
AcDbEntity
  8
Layer 1
 62
   250
370
    18
100
AcDbVertex
100
AcDb2dVertex
 10
2.452236599392361
 20
-4.043924967447916
 30
0.0
  0
VERTEX
  5
159
330
155
100
AcDbEntity
  8
Layer 1
 62
   250
370
    18
100
AcDbVertex
100
AcDb2dVertex
 10
2.452236599392361
 20
-3.918924967447917
 30
0.0
  0
VERTEX
  5
15A
330
155
100
AcDbEntity
  8
Layer 1
 62
   250
370
    18
100
AcDbVertex
100
AcDb2dVertex
 10
3.452236599392361
 20
-3.918924967447917
 30
0.0
  0
SEQEND
  5
15B
330
155
100
AcDbEntity
  8
Layer 1
370
    18
  0
POLYLINE
  5
15C
330
119
100
AcDbEntity
  8
Layer 1
 62
   250
370
    18
100
AcDb2dPolyline
 66
     1
 10
0.0
 20
0.0
 30
0.0
  0
VERTEX
  5
15D
330
15C
100
AcDbEntity
  8
Layer 1
 62
   250
370
    18
100
AcDbVertex
100
AcDb2dVertex
 10
4.741265190972222
 20
-3.918924967447917
 30
0.0
  0
VERTEX
  5
15E
330
15C
100
AcDbEntity
  8
Layer 1
 62
   250
370
    18
100
AcDbVertex
100
AcDb2dVertex
 10
4.741265190972222
 20
-4.043924967447916
 30
0.0
  0
VERTEX
  5
15F
330
15C
100
AcDbEntity
  8
Layer 1
 62
   250
370
    18
100
AcDbVertex
100
AcDb2dVertex
 10
3.577236599392361
 20
-4.043924967447916
 30
0.0
  0
VERTEX
  5
160
330
15C
100
AcDbEntity
  8
Layer 1
 62
   250
370
    18
100
AcDbVertex
100
AcDb2dVertex
 10
3.577236599392361
 20
-3.918924967447917
 30
0.0
  0
VERTEX
  5
161
330
15C
100
AcDbEntity
  8
Layer 1
 62
   250
370
    18
100
AcDbVertex
100
AcDb2dVertex
 10
4.741265190972222
 20
-3.918924967447917
 30
0.0
  0
SEQEND
  5
162
330
15C
100
AcDbEntity
  8
Layer 1
370
    18
  0
POLYLINE
  5
163
330
119
100
AcDbEntity
  8
Layer 1
 62
   250
370
    18
100
AcDb2dPolyline
 66
     1
 10
0.0
 20
0.0
 30
0.0
  0
VERTEX
  5
164
330
163
100
AcDbEntity
  8
Layer 1
 62
   250
370
    18
100
AcDbVertex
100
AcDb2dVertex
 10
2.327236599392361
 20
-3.418924967447917
 30
0.0
  0
VERTEX
  5
165
330
163
100
AcDbEntity
  8
Layer 1
 62
   250
370
    18
100
AcDbVertex
100
AcDb2dVertex
 10
2.327236599392361
 20
-3.543924967447917
 30
0.0
  0
VERTEX
  5
166
330
163
100
AcDbEntity
  8
Layer 1
 62
   250
370
    18
100
AcDbVertex
100
AcDb2dVertex
 10
1.153299967447917
 20
-3.543924967447917
 30
0.0
  0
VERTEX
  5
167
330
163
100
AcDbEntity
  8
Layer 1
 62
   250
370
    18
100
AcDbVertex
100
AcDb2dVertex
 10
1.153299967447917
 20
-3.418924967447917
 30
0.0
  0
VERTEX
  5
168
330
163
100
AcDbEntity
  8
Layer 1
 62
   250
370
    18
100
AcDbVertex
100
AcDb2dVertex
 10
2.327236599392361
 20
-3.418924967447917
 30
0.0
  0
SEQEND
  5
169
330
163
100
AcDbEntity
  8
Layer 1
370
    18
  0
POLYLINE
  5
16A
330
119
100
AcDbEntity
  8
Layer 1
 62
   250
370
    18
100
AcDb2dPolyline
 66
     1
 10
0.0
 20
0.0
 30
0.0
  0
VERTEX
  5
16B
330
16A
100
AcDbEntity
  8
Layer 1
 62
   250
370
    18
100
AcDbVertex
100
AcDb2dVertex
 10
3.452236599392361
 20
-3.418924967447917
 30
0.0
  0
VERTEX
  5
16C
330
16A
100
AcDbEntity
  8
Layer 1
 62
   250
370
    18
100
AcDbVertex
100
AcDb2dVertex
 10
3.452236599392361
 20
-3.543924967447917
 30
0.0
  0
VERTEX
  5
16D
330
16A
100
AcDbEntity
  8
Layer 1
 62
   250
370
    18
100
AcDbVertex
100
AcDb2dVertex
 10
2.452236599392361
 20
-3.543924967447917
 30
0.0
  0
VERTEX
  5
16E
330
16A
100
AcDbEntity
  8
Layer 1
 62
   250
370
    18
100
AcDbVertex
100
AcDb2dVertex
 10
2.452236599392361
 20
-3.418924967447917
 30
0.0
  0
VERTEX
  5
16F
330
16A
100
AcDbEntity
  8
Layer 1
 62
   250
370
    18
100
AcDbVertex
100
AcDb2dVertex
 10
3.452236599392361
 20
-3.418924967447917
 30
0.0
  0
SEQEND
  5
170
330
16A
100
AcDbEntity
  8
Layer 1
370
    18
  0
POLYLINE
  5
171
330
119
100
AcDbEntity
  8
Layer 1
 62
   250
370
    18
100
AcDb2dPolyline
 66
     1
 10
0.0
 20
0.0
 30
0.0
  0
VERTEX
  5
172
330
171
100
AcDbEntity
  8
Layer 1
 62
   250
370
    18
100
AcDbVertex
100
AcDb2dVertex
 10
4.741265190972222
 20
-3.418924967447917
 30
0.0
  0
VERTEX
  5
173
330
171
100
AcDbEntity
  8
Layer 1
 62
   250
370
    18
100
AcDbVertex
100
AcDb2dVertex
 10
4.741265190972222
 20
-3.543924967447917
 30
0.0
  0
VERTEX
  5
174
330
171
100
AcDbEntity
  8
Layer 1
 62
   250
370
    18
100
AcDbVertex
100
AcDb2dVertex
 10
3.577236599392361
 20
-3.543924967447917
 30
0.0
  0
VERTEX
  5
175
330
171
100
AcDbEntity
  8
Layer 1
 62
   250
370
    18
100
AcDbVertex
100
AcDb2dVertex
 10
3.577236599392361
 20
-3.418924967447917
 30
0.0
  0
VERTEX
  5
176
330
171
100
AcDbEntity
  8
Layer 1
 62
   250
370
    18
100
AcDbVertex
100
AcDb2dVertex
 10
4.741265190972222
 20
-3.418924967447917
 30
0.0
  0
SEQEND
  5
177
330
171
100
AcDbEntity
  8
Layer 1
370
    18
  0
POLYLINE
  5
178
330
119
100
AcDbEntity
  8
Layer 1
 62
   250
370
    18
100
AcDb2dPolyline
 66
     1
 10
0.0
 20
0.0
 30
0.0
  0
VERTEX
  5
179
330
178
100
AcDbEntity
  8
Layer 1
 62
   250
370
    18
100
AcDbVertex
100
AcDb2dVertex
 10
2.327236599392361
 20
-2.918924967447917
 30
0.0
  0
VERTEX
  5
17A
330
178
100
AcDbEntity
  8
Layer 1
 62
   250
370
    18
100
AcDbVertex
100
AcDb2dVertex
 10
2.327236599392361
 20
-3.043924967447917
 30
0.0
  0
VERTEX
  5
17B
330
178
100
AcDbEntity
  8
Layer 1
 62
   250
370
    18
100
AcDbVertex
100
AcDb2dVertex
 10
1.153299967447917
 20
-3.043924967447917
 30
0.0
  0
VERTEX
  5
17C
330
178
100
AcDbEntity
  8
Layer 1
 62
   250
370
    18
100
AcDbVertex
100
AcDb2dVertex
 10
1.153299967447917
 20
-2.918924967447917
 30
0.0
  0
VERTEX
  5
17D
330
178
100
AcDbEntity
  8
Layer 1
 62
   250
370
    18
100
AcDbVertex
100
AcDb2dVertex
 10
2.327236599392361
 20
-2.918924967447917
 30
0.0
  0
SEQEND
  5
17E
330
178
100
AcDbEntity
  8
Layer 1
370
    18
  0
POLYLINE
  5
17F
330
119
100
AcDbEntity
  8
Layer 1
 62
   250
370
    18
100
AcDb2dPolyline
 66
     1
 10
0.0
 20
0.0
 30
0.0
  0
VERTEX
  5
180
330
17F
100
AcDbEntity
  8
Layer 1
 62
   250
370
    18
100
AcDbVertex
100
AcDb2dVertex
 10
3.452236599392361
 20
-2.918924967447917
 30
0.0
  0
VERTEX
  5
181
330
17F
100
AcDbEntity
  8
Layer 1
 62
   250
370
    18
100
AcDbVertex
100
AcDb2dVertex
 10
3.452236599392361
 20
-3.043924967447917
 30
0.0
  0
VERTEX
  5
182
330
17F
100
AcDbEntity
  8
Layer 1
 62
   250
370
    18
100
AcDbVertex
100
AcDb2dVertex
 10
2.452236599392361
 20
-3.043924967447917
 30
0.0
  0
VERTEX
  5
183
330
17F
100
AcDbEntity
  8
Layer 1
 62
   250
370
    18
100
AcDbVertex
100
AcDb2dVertex
 10
2.452236599392361
 20
-2.918924967447917
 30
0.0
  0
VERTEX
  5
184
330
17F
100
AcDbEntity
  8
Layer 1
 62
   250
370
    18
100
AcDbVertex
100
AcDb2dVertex
 10
3.452236599392361
 20
-2.918924967447917
 30
0.0
  0
SEQEND
  5
185
330
17F
100
AcDbEntity
  8
Layer 1
370
    18
  0
POLYLINE
  5
186
330
119
100
AcDbEntity
  8
Layer 1
 62
   250
370
    18
100
AcDb2dPolyline
 66
     1
 10
0.0
 20
0.0
 30
0.0
  0
VERTEX
  5
187
330
186
100
AcDbEntity
  8
Layer 1
 62
   250
370
    18
100
AcDbVertex
100
AcDb2dVertex
 10
4.741265190972222
 20
-2.918924967447917
 30
0.0
  0
VERTEX
  5
188
330
186
100
AcDbEntity
  8
Layer 1
 62
   250
370
    18
100
AcDbVertex
100
AcDb2dVertex
 10
4.741265190972222
 20
-3.043924967447917
 30
0.0
  0
VERTEX
  5
189
330
186
100
AcDbEntity
  8
Layer 1
 62
   250
370
    18
100
AcDbVertex
100
AcDb2dVertex
 10
3.577236599392361
 20
-3.043924967447917
 30
0.0
  0
VERTEX
  5
18A
330
186
100
AcDbEntity
  8
Layer 1
 62
   250
370
    18
100
AcDbVertex
100
AcDb2dVertex
 10
3.577236599392361
 20
-2.918924967447917
 30
0.0
  0
VERTEX
  5
18B
330
186
100
AcDbEntity
  8
Layer 1
 62
   250
370
    18
100
AcDbVertex
100
AcDb2dVertex
 10
4.741265190972222
 20
-2.918924967447917
 30
0.0
  0
SEQEND
  5
18C
330
186
100
AcDbEntity
  8
Layer 1
370
    18
  0
POLYLINE
  5
18D
330
119
100
AcDbEntity
  8
Layer 1
 62
   250
370
    18
100
AcDb2dPolyline
 66
     1
 10
0.0
 20
0.0
 30
0.0
  0
VERTEX
  5
18E
330
18D
100
AcDbEntity
  8
Layer 1
 62
   250
370
    18
100
AcDbVertex
100
AcDb2dVertex
 10
2.327236599392361
 20
-2.418924967447917
 30
0.0
  0
VERTEX
  5
18F
330
18D
100
AcDbEntity
  8
Layer 1
 62
   250
370
    18
100
AcDbVertex
100
AcDb2dVertex
 10
2.327236599392361
 20
-2.543924967447917
 30
0.0
  0
VERTEX
  5
190
330
18D
100
AcDbEntity
  8
Layer 1
 62
   250
370
    18
100
AcDbVertex
100
AcDb2dVertex
 10
1.153299967447917
 20
-2.543924967447917
 30
0.0
  0
VERTEX
  5
191
330
18D
100
AcDbEntity
  8
Layer 1
 62
   250
370
    18
100
AcDbVertex
100
AcDb2dVertex
 10
1.153299967447917
 20
-2.418924967447917
 30
0.0
  0
VERTEX
  5
192
330
18D
100
AcDbEntity
  8
Layer 1
 62
   250
370
    18
100
AcDbVertex
100
AcDb2dVertex
 10
2.327236599392361
 20
-2.418924967447917
 30
0.0
  0
SEQEND
  5
193
330
18D
100
AcDbEntity
  8
Layer 1
370
    18
  0
POLYLINE
  5
194
330
119
100
AcDbEntity
  8
Layer 1
 62
   250
370
    18
100
AcDb2dPolyline
 66
     1
 10
0.0
 20
0.0
 30
0.0
  0
VERTEX
  5
195
330
194
100
AcDbEntity
  8
Layer 1
 62
   250
370
    18
100
AcDbVertex
100
AcDb2dVertex
 10
3.452236599392361
 20
-2.418924967447917
 30
0.0
  0
VERTEX
  5
196
330
194
100
AcDbEntity
  8
Layer 1
 62
   250
370
    18
100
AcDbVertex
100
AcDb2dVertex
 10
3.452236599392361
 20
-2.543924967447917
 30
0.0
  0
VERTEX
  5
197
330
194
100
AcDbEntity
  8
Layer 1
 62
   250
370
    18
100
AcDbVertex
100
AcDb2dVertex
 10
2.452236599392361
 20
-2.543924967447917
 30
0.0
  0
VERTEX
  5
198
330
194
100
AcDbEntity
  8
Layer 1
 62
   250
370
    18
100
AcDbVertex
100
AcDb2dVertex
 10
2.452236599392361
 20
-2.418924967447917
 30
0.0
  0
VERTEX
  5
199
330
194
100
AcDbEntity
  8
Layer 1
 62
   250
370
    18
100
AcDbVertex
100
AcDb2dVertex
 10
3.452236599392361
 20
-2.418924967447917
 30
0.0
  0
SEQEND
  5
19A
330
194
100
AcDbEntity
  8
Layer 1
370
    18
  0
POLYLINE
  5
19B
330
119
100
AcDbEntity
  8
Layer 1
 62
   250
370
    18
100
AcDb2dPolyline
 66
     1
 10
0.0
 20
0.0
 30
0.0
  0
VERTEX
  5
19C
330
19B
100
AcDbEntity
  8
Layer 1
 62
   250
370
    18
100
AcDbVertex
100
AcDb2dVertex
 10
4.741265190972222
 20
-2.418924967447917
 30
0.0
  0
VERTEX
  5
19D
330
19B
100
AcDbEntity
  8
Layer 1
 62
   250
370
    18
100
AcDbVertex
100
AcDb2dVertex
 10
4.741265190972222
 20
-2.543924967447917
 30
0.0
  0
VERTEX
  5
19E
330
19B
100
AcDbEntity
  8
Layer 1
 62
   250
370
    18
100
AcDbVertex
100
AcDb2dVertex
 10
3.577236599392361
 20
-2.543924967447917
 30
0.0
  0
VERTEX
  5
19F
330
19B
100
AcDbEntity
  8
Layer 1
 62
   250
370
    18
100
AcDbVertex
100
AcDb2dVertex
 10
3.577236599392361
 20
-2.418924967447917
 30
0.0
  0
VERTEX
  5
1A0
330
19B
100
AcDbEntity
  8
Layer 1
 62
   250
370
    18
100
AcDbVertex
100
AcDb2dVertex
 10
4.741265190972222
 20
-2.418924967447917
 30
0.0
  0
SEQEND
  5
1A1
330
19B
100
AcDbEntity
  8
Layer 1
370
    18
  0
POLYLINE
  5
1A2
330
119
100
AcDbEntity
  8
Layer 1
 62
   250
370
    18
100
AcDb2dPolyline
 66
     1
 10
0.0
 20
0.0
 30
0.0
  0
VERTEX
  5
1A3
330
1A2
100
AcDbEntity
  8
Layer 1
 62
   250
370
    18
100
AcDbVertex
100
AcDb2dVertex
 10
2.327236599392361
 20
-1.918924967447917
 30
0.0
  0
VERTEX
  5
1A4
330
1A2
100
AcDbEntity
  8
Layer 1
 62
   250
370
    18
100
AcDbVertex
100
AcDb2dVertex
 10
2.327236599392361
 20
-2.043924967447917
 30
0.0
  0
VERTEX
  5
1A5
330
1A2
100
AcDbEntity
  8
Layer 1
 62
   250
370
    18
100
AcDbVertex
100
AcDb2dVertex
 10
1.153299967447917
 20
-2.043924967447917
 30
0.0
  0
VERTEX
  5
1A6
330
1A2
100
AcDbEntity
  8
Layer 1
 62
   250
370
    18
100
AcDbVertex
100
AcDb2dVertex
 10
1.153299967447917
 20
-1.918924967447917
 30
0.0
  0
VERTEX
  5
1A7
330
1A2
100
AcDbEntity
  8
Layer 1
 62
   250
370
    18
100
AcDbVertex
100
AcDb2dVertex
 10
2.327236599392361
 20
-1.918924967447917
 30
0.0
  0
SEQEND
  5
1A8
330
1A2
100
AcDbEntity
  8
Layer 1
370
    18
  0
POLYLINE
  5
1A9
330
119
100
AcDbEntity
  8
Layer 1
 62
   250
370
    18
100
AcDb2dPolyline
 66
     1
 10
0.0
 20
0.0
 30
0.0
  0
VERTEX
  5
1AA
330
1A9
100
AcDbEntity
  8
Layer 1
 62
   250
370
    18
100
AcDbVertex
100
AcDb2dVertex
 10
3.452236599392361
 20
-1.918924967447917
 30
0.0
  0
VERTEX
  5
1AB
330
1A9
100
AcDbEntity
  8
Layer 1
 62
   250
370
    18
100
AcDbVertex
100
AcDb2dVertex
 10
3.452236599392361
 20
-2.043924967447917
 30
0.0
  0
VERTEX
  5
1AC
330
1A9
100
AcDbEntity
  8
Layer 1
 62
   250
370
    18
100
AcDbVertex
100
AcDb2dVertex
 10
2.452236599392361
 20
-2.043924967447917
 30
0.0
  0
VERTEX
  5
1AD
330
1A9
100
AcDbEntity
  8
Layer 1
 62
   250
370
    18
100
AcDbVertex
100
AcDb2dVertex
 10
2.452236599392361
 20
-1.918924967447917
 30
0.0
  0
VERTEX
  5
1AE
330
1A9
100
AcDbEntity
  8
Layer 1
 62
   250
370
    18
100
AcDbVertex
100
AcDb2dVertex
 10
3.452236599392361
 20
-1.918924967447917
 30
0.0
  0
SEQEND
  5
1AF
330
1A9
100
AcDbEntity
  8
Layer 1
370
    18
  0
POLYLINE
  5
1B0
330
119
100
AcDbEntity
  8
Layer 1
 62
   250
370
    18
100
AcDb2dPolyline
 66
     1
 10
0.0
 20
0.0
 30
0.0
  0
VERTEX
  5
1B1
330
1B0
100
AcDbEntity
  8
Layer 1
 62
   250
370
    18
100
AcDbVertex
100
AcDb2dVertex
 10
4.741265190972222
 20
-1.918924967447917
 30
0.0
  0
VERTEX
  5
1B2
330
1B0
100
AcDbEntity
  8
Layer 1
 62
   250
370
    18
100
AcDbVertex
100
AcDb2dVertex
 10
4.741265190972222
 20
-2.043924967447917
 30
0.0
  0
VERTEX
  5
1B3
330
1B0
100
AcDbEntity
  8
Layer 1
 62
   250
370
    18
100
AcDbVertex
100
AcDb2dVertex
 10
3.577236599392361
 20
-2.043924967447917
 30
0.0
  0
VERTEX
  5
1B4
330
1B0
100
AcDbEntity
  8
Layer 1
 62
   250
370
    18
100
AcDbVertex
100
AcDb2dVertex
 10
3.577236599392361
 20
-1.918924967447917
 30
0.0
  0
VERTEX
  5
1B5
330
1B0
100
AcDbEntity
  8
Layer 1
 62
   250
370
    18
100
AcDbVertex
100
AcDb2dVertex
 10
4.741265190972222
 20
-1.918924967447917
 30
0.0
  0
SEQEND
  5
1B6
330
1B0
100
AcDbEntity
  8
Layer 1
370
    18
  0
POLYLINE
  5
1B7
330
119
100
AcDbEntity
  8
Layer 1
 62
   250
370
    18
100
AcDb2dPolyline
 66
     1
 10
0.0
 20
0.0
 30
0.0
  0
VERTEX
  5
1B8
330
1B7
100
AcDbEntity
  8
Layer 1
 62
   250
370
    18
100
AcDbVertex
100
AcDb2dVertex
 10
2.327236599392361
 20
-1.418924967447917
 30
0.0
  0
VERTEX
  5
1B9
330
1B7
100
AcDbEntity
  8
Layer 1
 62
   250
370
    18
100
AcDbVertex
100
AcDb2dVertex
 10
2.327236599392361
 20
-1.543924967447917
 30
0.0
  0
VERTEX
  5
1BA
330
1B7
100
AcDbEntity
  8
Layer 1
 62
   250
370
    18
100
AcDbVertex
100
AcDb2dVertex
 10
1.153299967447917
 20
-1.543924967447917
 30
0.0
  0
VERTEX
  5
1BB
330
1B7
100
AcDbEntity
  8
Layer 1
 62
   250
370
    18
100
AcDbVertex
100
AcDb2dVertex
 10
1.153299967447917
 20
-1.418924967447917
 30
0.0
  0
VERTEX
  5
1BC
330
1B7
100
AcDbEntity
  8
Layer 1
 62
   250
370
    18
100
AcDbVertex
100
AcDb2dVertex
 10
2.327236599392361
 20
-1.418924967447917
 30
0.0
  0
SEQEND
  5
1BD
330
1B7
100
AcDbEntity
  8
Layer 1
370
    18
  0
POLYLINE
  5
1BE
330
119
100
AcDbEntity
  8
Layer 1
 62
   250
370
    18
100
AcDb2dPolyline
 66
     1
 10
0.0
 20
0.0
 30
0.0
  0
VERTEX
  5
1BF
330
1BE
100
AcDbEntity
  8
Layer 1
 62
   250
370
    18
100
AcDbVertex
100
AcDb2dVertex
 10
3.452236599392361
 20
-1.418924967447917
 30
0.0
  0
VERTEX
  5
1C0
330
1BE
100
AcDbEntity
  8
Layer 1
 62
   250
370
    18
100
AcDbVertex
100
AcDb2dVertex
 10
3.452236599392361
 20
-1.543924967447917
 30
0.0
  0
VERTEX
  5
1C1
330
1BE
100
AcDbEntity
  8
Layer 1
 62
   250
370
    18
100
AcDbVertex
100
AcDb2dVertex
 10
2.452236599392361
 20
-1.543924967447917
 30
0.0
  0
VERTEX
  5
1C2
330
1BE
100
AcDbEntity
  8
Layer 1
 62
   250
370
    18
100
AcDbVertex
100
AcDb2dVertex
 10
2.452236599392361
 20
-1.418924967447917
 30
0.0
  0
VERTEX
  5
1C3
330
1BE
100
AcDbEntity
  8
Layer 1
 62
   250
370
    18
100
AcDbVertex
100
AcDb2dVertex
 10
3.452236599392361
 20
-1.418924967447917
 30
0.0
  0
SEQEND
  5
1C4
330
1BE
100
AcDbEntity
  8
Layer 1
370
    18
  0
POLYLINE
  5
1C5
330
119
100
AcDbEntity
  8
Layer 1
 62
   250
370
    18
100
AcDb2dPolyline
 66
     1
 10
0.0
 20
0.0
 30
0.0
  0
VERTEX
  5
1C6
330
1C5
100
AcDbEntity
  8
Layer 1
 62
   250
370
    18
100
AcDbVertex
100
AcDb2dVertex
 10
4.741265190972222
 20
-1.418924967447917
 30
0.0
  0
VERTEX
  5
1C7
330
1C5
100
AcDbEntity
  8
Layer 1
 62
   250
370
    18
100
AcDbVertex
100
AcDb2dVertex
 10
4.741265190972222
 20
-1.543924967447917
 30
0.0
  0
VERTEX
  5
1C8
330
1C5
100
AcDbEntity
  8
Layer 1
 62
   250
370
    18
100
AcDbVertex
100
AcDb2dVertex
 10
3.577236599392361
 20
-1.543924967447917
 30
0.0
  0
VERTEX
  5
1C9
330
1C5
100
AcDbEntity
  8
Layer 1
 62
   250
370
    18
100
AcDbVertex
100
AcDb2dVertex
 10
3.577236599392361
 20
-1.418924967447917
 30
0.0
  0
VERTEX
  5
1CA
330
1C5
100
AcDbEntity
  8
Layer 1
 62
   250
370
    18
100
AcDbVertex
100
AcDb2dVertex
 10
4.741265190972222
 20
-1.418924967447917
 30
0.0
  0
SEQEND
  5
1CB
330
1C5
100
AcDbEntity
  8
Layer 1
370
    18
  0
POLYLINE
  5
1CC
330
119
100
AcDbEntity
  8
Layer 1
 62
   250
370
    18
100
AcDb2dPolyline
 66
     1
 10
0.0
 20
0.0
 30
0.0
  0
VERTEX
  5
1CD
330
1CC
100
AcDbEntity
  8
Layer 1
 62
   250
370
    18
100
AcDbVertex
100
AcDb2dVertex
 10
2.327236599392361
 20
-0.9189249674479166
 30
0.0
  0
VERTEX
  5
1CE
330
1CC
100
AcDbEntity
  8
Layer 1
 62
   250
370
    18
100
AcDbVertex
100
AcDb2dVertex
 10
2.327236599392361
 20
-1.043924967447917
 30
0.0
  0
VERTEX
  5
1CF
330
1CC
100
AcDbEntity
  8
Layer 1
 62
   250
370
    18
100
AcDbVertex
100
AcDb2dVertex
 10
1.153299967447917
 20
-1.043924967447917
 30
0.0
  0
VERTEX
  5
1D0
330
1CC
100
AcDbEntity
  8
Layer 1
 62
   250
370
    18
100
AcDbVertex
100
AcDb2dVertex
 10
1.153299967447917
 20
-0.9189249674479166
 30
0.0
  0
VERTEX
  5
1D1
330
1CC
100
AcDbEntity
  8
Layer 1
 62
   250
370
    18
100
AcDbVertex
100
AcDb2dVertex
 10
2.327236599392361
 20
-0.9189249674479166
 30
0.0
  0
SEQEND
  5
1D2
330
1CC
100
AcDbEntity
  8
Layer 1
370
    18
  0
POLYLINE
  5
1D3
330
119
100
AcDbEntity
  8
Layer 1
 62
   250
370
    18
100
AcDb2dPolyline
 66
     1
 10
0.0
 20
0.0
 30
0.0
  0
VERTEX
  5
1D4
330
1D3
100
AcDbEntity
  8
Layer 1
 62
   250
370
    18
100
AcDbVertex
100
AcDb2dVertex
 10
3.452236599392361
 20
-0.9189249674479166
 30
0.0
  0
VERTEX
  5
1D5
330
1D3
100
AcDbEntity
  8
Layer 1
 62
   250
370
    18
100
AcDbVertex
100
AcDb2dVertex
 10
3.452236599392361
 20
-1.043924967447917
 30
0.0
  0
VERTEX
  5
1D6
330
1D3
100
AcDbEntity
  8
Layer 1
 62
   250
370
    18
100
AcDbVertex
100
AcDb2dVertex
 10
2.452236599392361
 20
-1.043924967447917
 30
0.0
  0
VERTEX
  5
1D7
330
1D3
100
AcDbEntity
  8
Layer 1
 62
   250
370
    18
100
AcDbVertex
100
AcDb2dVertex
 10
2.452236599392361
 20
-0.9189249674479166
 30
0.0
  0
VERTEX
  5
1D8
330
1D3
100
AcDbEntity
  8
Layer 1
 62
   250
370
    18
100
AcDbVertex
100
AcDb2dVertex
 10
3.452236599392361
 20
-0.9189249674479166
 30
0.0
  0
SEQEND
  5
1D9
330
1D3
100
AcDbEntity
  8
Layer 1
370
    18
  0
POLYLINE
  5
1DA
330
119
100
AcDbEntity
  8
Layer 1
 62
   250
370
    18
100
AcDb2dPolyline
 66
     1
 10
0.0
 20
0.0
 30
0.0
  0
VERTEX
  5
1DB
330
1DA
100
AcDbEntity
  8
Layer 1
 62
   250
370
    18
100
AcDbVertex
100
AcDb2dVertex
 10
4.741265190972222
 20
-0.9189249674479166
 30
0.0
  0
VERTEX
  5
1DC
330
1DA
100
AcDbEntity
  8
Layer 1
 62
   250
370
    18
100
AcDbVertex
100
AcDb2dVertex
 10
4.741265190972222
 20
-1.043924967447917
 30
0.0
  0
VERTEX
  5
1DD
330
1DA
100
AcDbEntity
  8
Layer 1
 62
   250
370
    18
100
AcDbVertex
100
AcDb2dVertex
 10
3.577236599392361
 20
-1.043924967447917
 30
0.0
  0
VERTEX
  5
1DE
330
1DA
100
AcDbEntity
  8
Layer 1
 62
   250
370
    18
100
AcDbVertex
100
AcDb2dVertex
 10
3.577236599392361
 20
-0.9189249674479166
 30
0.0
  0
VERTEX
  5
1DF
330
1DA
100
AcDbEntity
  8
Layer 1
 62
   250
370
    18
100
AcDbVertex
100
AcDb2dVertex
 10
4.741265190972222
 20
-0.9189249674479166
 30
0.0
  0
SEQEND
  5
1E0
330
1DA
100
AcDbEntity
  8
Layer 1
370
    18
  0
ENDBLK
  5
11C
330
119
100
AcDbEntity
  8
0
100
AcDbBlockEnd
  0
BLOCK
  5
1E3
330
1E1
100
AcDbEntity
  8
0
100
AcDbBlockBegin
  2
block 4
 70
     0
 71
     0
 10
0.0
 20
0.0
 30
0.0
  3
block 4
  1

  0
POLYLINE
  5
1E5
330
1E1
100
AcDbEntity
  8
Layer 1
 62
   250
370
    18
100
AcDb2dPolyline
 66
     1
 10
0.0
 20
0.0
 30
0.0
  0
VERTEX
  5
1E6
330
1E5
100
AcDbEntity
  8
Layer 1
 62
   250
370
    18
100
AcDbVertex
100
AcDb2dVertex
 10
5.72052001953125
 20
-8.298326280381945
 30
0.0
  0
VERTEX
  5
1E7
330
1E5
100
AcDbEntity
  8
Layer 1
 62
   250
370
    18
100
AcDbVertex
100
AcDb2dVertex
 10
8.17489963107639
 20
-8.298326280381945
 30
0.0
  0
SEQEND
  5
1E8
330
1E5
100
AcDbEntity
  8
Layer 1
370
    18
  0
POLYLINE
  5
1E9
330
1E1
100
AcDbEntity
  8
Layer 1
 62
   250
370
    18
100
AcDb2dPolyline
 66
     1
 10
0.0
 20
0.0
 30
0.0
  0
VERTEX
  5
1EA
330
1E9
100
AcDbEntity
  8
Layer 1
 62
   250
370
    18
100
AcDbVertex
100
AcDb2dVertex
 10
5.153069390190972
 20
-8.298326280381945
 30
0.0
  0
VERTEX
  5
1EB
330
1E9
100
AcDbEntity
  8
Layer 1
 62
   250
370
    18
100
AcDbVertex
100
AcDb2dVertex
 10
5.594204372829861
 20
-8.298326280381945
 30
0.0
  0
SEQEND
  5
1EC
330
1E9
100
AcDbEntity
  8
Layer 1
370
    18
  0
POLYLINE
  5
1ED
330
1E1
100
AcDbEntity
  8
Layer 1
 62
   250
370
    18
100
AcDb2dPolyline
 66
     1
 10
0.0
 20
0.0
 30
0.0
  0
VERTEX
  5
1EE
330
1ED
100
AcDbEntity
  8
Layer 1
 62
   250
370
    18
100
AcDbVertex
100
AcDb2dVertex
 10
8.29989963107639
 20
-8.298326280381945
 30
0.0
  0
VERTEX
  5
1EF
330
1ED
100
AcDbEntity
  8
Layer 1
 62
   250
370
    18
100
AcDbVertex
100
AcDb2dVertex
 10
8.741034613715277
 20
-8.298326280381945
 30
0.0
  0
SEQEND
  5
1F0
330
1ED
100
AcDbEntity
  8
Layer 1
370
    18
  0
INSERT
  5
1F2
330
1E1
100
AcDbEntity
  8
Layer 1
100
AcDbBlockReference
  2
block 5
 10
0.0
 20
0.0
 30
0.0
  0
POLYLINE
  5
201
330
1E1
100
AcDbEntity
  8
Layer 1
 62
   250
370
    18
100
AcDb2dPolyline
 66
     1
 10
0.0
 20
0.0
 30
0.0
  0
VERTEX
  5
202
330
201
100
AcDbEntity
  8
Layer 1
 62
   250
370
    18
100
AcDbVertex
100
AcDb2dVertex
 10
5.72052001953125
 20
-8.159437391493055
 30
0.0
  0
VERTEX
  5
203
330
201
100
AcDbEntity
  8
Layer 1
 62
   250
370
    18
100
AcDbVertex
100
AcDb2dVertex
 10
8.17489963107639
 20
-8.159437391493055
 30
0.0
  0
SEQEND
  5
204
330
201
100
AcDbEntity
  8
Layer 1
370
    18
  0
POLYLINE
  5
205
330
1E1
100
AcDbEntity
  8
Layer 1
 62
   250
370
    18
100
AcDb2dPolyline
 66
     1
 10
0.0
 20
0.0
 30
0.0
  0
VERTEX
  5
206
330
205
100
AcDbEntity
  8
Layer 1
 62
   250
370
    18
100
AcDbVertex
100
AcDb2dVertex
 10
5.153069390190972
 20
-8.159437391493055
 30
0.0
  0
VERTEX
  5
207
330
205
100
AcDbEntity
  8
Layer 1
 62
   250
370
    18
100
AcDbVertex
100
AcDb2dVertex
 10
5.594204372829861
 20
-8.159437391493055
 30
0.0
  0
SEQEND
  5
208
330
205
100
AcDbEntity
  8
Layer 1
370
    18
  0
POLYLINE
  5
209
330
1E1
100
AcDbEntity
  8
Layer 1
 62
   250
370
    18
100
AcDb2dPolyline
 66
     1
 10
0.0
 20
0.0
 30
0.0
  0
VERTEX
  5
20A
330
209
100
AcDbEntity
  8
Layer 1
 62
   250
370
    18
100
AcDbVertex
100
AcDb2dVertex
 10
8.29989963107639
 20
-8.159437391493055
 30
0.0
  0
VERTEX
  5
20B
330
209
100
AcDbEntity
  8
Layer 1
 62
   250
370
    18
100
AcDbVertex
100
AcDb2dVertex
 10
8.741034613715277
 20
-8.159437391493055
 30
0.0
  0
SEQEND
  5
20C
330
209
100
AcDbEntity
  8
Layer 1
370
    18
  0
INSERT
  5
20E
330
1E1
100
AcDbEntity
  8
Layer 1
100
AcDbBlockReference
  2
block 6
 10
0.0
 20
0.0
 30
0.0
  0
POLYLINE
  5
21D
330
1E1
100
AcDbEntity
  8
Layer 1
 62
   250
370
    18
100
AcDb2dPolyline
 66
     1
 10
0.0
 20
0.0
 30
0.0
  0
VERTEX
  5
21E
330
21D
100
AcDbEntity
  8
Layer 1
 62
   250
370
    18
100
AcDbVertex
100
AcDb2dVertex
 10
5.72052001953125
 20
-8.020548502604166
 30
0.0
  0
VERTEX
  5
21F
330
21D
100
AcDbEntity
  8
Layer 1
 62
   250
370
    18
100
AcDbVertex
100
AcDb2dVertex
 10
8.17489963107639
 20
-8.020548502604166
 30
0.0
  0
SEQEND
  5
220
330
21D
100
AcDbEntity
  8
Layer 1
370
    18
  0
POLYLINE
  5
221
330
1E1
100
AcDbEntity
  8
Layer 1
 62
   250
370
    18
100
AcDb2dPolyline
 66
     1
 10
0.0
 20
0.0
 30
0.0
  0
VERTEX
  5
222
330
221
100
AcDbEntity
  8
Layer 1
 62
   250
370
    18
100
AcDbVertex
100
AcDb2dVertex
 10
5.153069390190972
 20
-8.020548502604166
 30
0.0
  0
VERTEX
  5
223
330
221
100
AcDbEntity
  8
Layer 1
 62
   250
370
    18
100
AcDbVertex
100
AcDb2dVertex
 10
5.594204372829861
 20
-8.020548502604166
 30
0.0
  0
SEQEND
  5
224
330
221
100
AcDbEntity
  8
Layer 1
370
    18
  0
POLYLINE
  5
225
330
1E1
100
AcDbEntity
  8
Layer 1
 62
   250
370
    18
100
AcDb2dPolyline
 66
     1
 10
0.0
 20
0.0
 30
0.0
  0
VERTEX
  5
226
330
225
100
AcDbEntity
  8
Layer 1
 62
   250
370
    18
100
AcDbVertex
100
AcDb2dVertex
 10
8.29989963107639
 20
-8.020548502604166
 30
0.0
  0
VERTEX
  5
227
330
225
100
AcDbEntity
  8
Layer 1
 62
   250
370
    18
100
AcDbVertex
100
AcDb2dVertex
 10
8.741034613715277
 20
-8.020548502604166
 30
0.0
  0
SEQEND
  5
228
330
225
100
AcDbEntity
  8
Layer 1
370
    18
  0
INSERT
  5
22A
330
1E1
100
AcDbEntity
  8
Layer 1
100
AcDbBlockReference
  2
block 7
 10
0.0
 20
0.0
 30
0.0
  0
POLYLINE
  5
239
330
1E1
100
AcDbEntity
  8
Layer 1
 62
   250
370
    18
100
AcDb2dPolyline
 66
     1
 10
0.0
 20
0.0
 30
0.0
  0
VERTEX
  5
23A
330
239
100
AcDbEntity
  8
Layer 1
 62
   250
370
    18
100
AcDbVertex
100
AcDb2dVertex
 10
5.72052001953125
 20
-7.881659613715278
 30
0.0
  0
VERTEX
  5
23B
330
239
100
AcDbEntity
  8
Layer 1
 62
   250
370
    18
100
AcDbVertex
100
AcDb2dVertex
 10
8.17489963107639
 20
-7.881659613715278
 30
0.0
  0
SEQEND
  5
23C
330
239
100
AcDbEntity
  8
Layer 1
370
    18
  0
POLYLINE
  5
23D
330
1E1
100
AcDbEntity
  8
Layer 1
 62
   250
370
    18
100
AcDb2dPolyline
 66
     1
 10
0.0
 20
0.0
 30
0.0
  0
VERTEX
  5
23E
330
23D
100
AcDbEntity
  8
Layer 1
 62
   250
370
    18
100
AcDbVertex
100
AcDb2dVertex
 10
5.153069390190972
 20
-7.881659613715278
 30
0.0
  0
VERTEX
  5
23F
330
23D
100
AcDbEntity
  8
Layer 1
 62
   250
370
    18
100
AcDbVertex
100
AcDb2dVertex
 10
5.594204372829861
 20
-7.881659613715278
 30
0.0
  0
SEQEND
  5
240
330
23D
100
AcDbEntity
  8
Layer 1
370
    18
  0
POLYLINE
  5
241
330
1E1
100
AcDbEntity
  8
Layer 1
 62
   250
370
    18
100
AcDb2dPolyline
 66
     1
 10
0.0
 20
0.0
 30
0.0
  0
VERTEX
  5
242
330
241
100
AcDbEntity
  8
Layer 1
 62
   250
370
    18
100
AcDbVertex
100
AcDb2dVertex
 10
8.29989963107639
 20
-7.881659613715278
 30
0.0
  0
VERTEX
  5
243
330
241
100
AcDbEntity
  8
Layer 1
 62
   250
370
    18
100
AcDbVertex
100
AcDb2dVertex
 10
8.741034613715277
 20
-7.881659613715278
 30
0.0
  0
SEQEND
  5
244
330
241
100
AcDbEntity
  8
Layer 1
370
    18
  0
INSERT
  5
246
330
1E1
100
AcDbEntity
  8
Layer 1
100
AcDbBlockReference
  2
block 8
 10
0.0
 20
0.0
 30
0.0
  0
POLYLINE
  5
255
330
1E1
100
AcDbEntity
  8
Layer 1
 62
   250
370
    18
100
AcDb2dPolyline
 66
     1
 10
0.0
 20
0.0
 30
0.0
  0
VERTEX
  5
256
330
255
100
AcDbEntity
  8
Layer 1
 62
   250
370
    18
100
AcDbVertex
100
AcDb2dVertex
 10
5.72052001953125
 20
-7.742770724826388
 30
0.0
  0
VERTEX
  5
257
330
255
100
AcDbEntity
  8
Layer 1
 62
   250
370
    18
100
AcDbVertex
100
AcDb2dVertex
 10
8.17489963107639
 20
-7.742770724826388
 30
0.0
  0
SEQEND
  5
258
330
255
100
AcDbEntity
  8
Layer 1
370
    18
  0
POLYLINE
  5
259
330
1E1
100
AcDbEntity
  8
Layer 1
 62
   250
370
    18
100
AcDb2dPolyline
 66
     1
 10
0.0
 20
0.0
 30
0.0
  0
VERTEX
  5
25A
330
259
100
AcDbEntity
  8
Layer 1
 62
   250
370
    18
100
AcDbVertex
100
AcDb2dVertex
 10
5.153069390190972
 20
-7.742770724826388
 30
0.0
  0
VERTEX
  5
25B
330
259
100
AcDbEntity
  8
Layer 1
 62
   250
370
    18
100
AcDbVertex
100
AcDb2dVertex
 10
5.594204372829861
 20
-7.742770724826388
 30
0.0
  0
SEQEND
  5
25C
330
259
100
AcDbEntity
  8
Layer 1
370
    18
  0
POLYLINE
  5
25D
330
1E1
100
AcDbEntity
  8
Layer 1
 62
   250
370
    18
100
AcDb2dPolyline
 66
     1
 10
0.0
 20
0.0
 30
0.0
  0
VERTEX
  5
25E
330
25D
100
AcDbEntity
  8
Layer 1
 62
   250
370
    18
100
AcDbVertex
100
AcDb2dVertex
 10
8.29989963107639
 20
-7.742770724826388
 30
0.0
  0
VERTEX
  5
25F
330
25D
100
AcDbEntity
  8
Layer 1
 62
   250
370
    18
100
AcDbVertex
100
AcDb2dVertex
 10
8.741034613715277
 20
-7.742770724826388
 30
0.0
  0
SEQEND
  5
260
330
25D
100
AcDbEntity
  8
Layer 1
370
    18
  0
INSERT
  5
262
330
1E1
100
AcDbEntity
  8
Layer 1
100
AcDbBlockReference
  2
block 9
 10
0.0
 20
0.0
 30
0.0
  0
POLYLINE
  5
271
330
1E1
100
AcDbEntity
  8
Layer 1
 62
   250
370
    18
100
AcDb2dPolyline
 66
     1
 10
0.0
 20
0.0
 30
0.0
  0
VERTEX
  5
272
330
271
100
AcDbEntity
  8
Layer 1
 62
   250
370
    18
100
AcDbVertex
100
AcDb2dVertex
 10
5.72052001953125
 20
-7.603888617621528
 30
0.0
  0
VERTEX
  5
273
330
271
100
AcDbEntity
  8
Layer 1
 62
   250
370
    18
100
AcDbVertex
100
AcDb2dVertex
 10
8.17489963107639
 20
-7.603888617621528
 30
0.0
  0
SEQEND
  5
274
330
271
100
AcDbEntity
  8
Layer 1
370
    18
  0
POLYLINE
  5
275
330
1E1
100
AcDbEntity
  8
Layer 1
 62
   250
370
    18
100
AcDb2dPolyline
 66
     1
 10
0.0
 20
0.0
 30
0.0
  0
VERTEX
  5
276
330
275
100
AcDbEntity
  8
Layer 1
 62
   250
370
    18
100
AcDbVertex
100
AcDb2dVertex
 10
5.153069390190972
 20
-7.603888617621528
 30
0.0
  0
VERTEX
  5
277
330
275
100
AcDbEntity
  8
Layer 1
 62
   250
370
    18
100
AcDbVertex
100
AcDb2dVertex
 10
5.594204372829861
 20
-7.603888617621528
 30
0.0
  0
SEQEND
  5
278
330
275
100
AcDbEntity
  8
Layer 1
370
    18
  0
POLYLINE
  5
279
330
1E1
100
AcDbEntity
  8
Layer 1
 62
   250
370
    18
100
AcDb2dPolyline
 66
     1
 10
0.0
 20
0.0
 30
0.0
  0
VERTEX
  5
27A
330
279
100
AcDbEntity
  8
Layer 1
 62
   250
370
    18
100
AcDbVertex
100
AcDb2dVertex
 10
8.29989963107639
 20
-7.603888617621528
 30
0.0
  0
VERTEX
  5
27B
330
279
100
AcDbEntity
  8
Layer 1
 62
   250
370
    18
100
AcDbVertex
100
AcDb2dVertex
 10
8.741034613715277
 20
-7.603888617621528
 30
0.0
  0
SEQEND
  5
27C
330
279
100
AcDbEntity
  8
Layer 1
370
    18
  0
INSERT
  5
27E
330
1E1
100
AcDbEntity
  8
Layer 1
100
AcDbBlockReference
  2
block 10
 10
0.0
 20
0.0
 30
0.0
  0
POLYLINE
  5
28D
330
1E1
100
AcDbEntity
  8
Layer 1
 62
   250
370
    18
100
AcDb2dPolyline
 66
     1
 10
0.0
 20
0.0
 30
0.0
  0
VERTEX
  5
28E
330
28D
100
AcDbEntity
  8
Layer 1
 62
   250
370
    18
100
AcDbVertex
100
AcDb2dVertex
 10
5.72052001953125
 20
-7.464999728732638
 30
0.0
  0
VERTEX
  5
28F
330
28D
100
AcDbEntity
  8
Layer 1
 62
   250
370
    18
100
AcDbVertex
100
AcDb2dVertex
 10
8.17489963107639
 20
-7.464999728732638
 30
0.0
  0
SEQEND
  5
290
330
28D
100
AcDbEntity
  8
Layer 1
370
    18
  0
POLYLINE
  5
291
330
1E1
100
AcDbEntity
  8
Layer 1
 62
   250
370
    18
100
AcDb2dPolyline
 66
     1
 10
0.0
 20
0.0
 30
0.0
  0
VERTEX
  5
292
330
291
100
AcDbEntity
  8
Layer 1
 62
   250
370
    18
100
AcDbVertex
100
AcDb2dVertex
 10
5.153069390190972
 20
-7.464999728732638
 30
0.0
  0
VERTEX
  5
293
330
291
100
AcDbEntity
  8
Layer 1
 62
   250
370
    18
100
AcDbVertex
100
AcDb2dVertex
 10
5.594204372829861
 20
-7.464999728732638
 30
0.0
  0
SEQEND
  5
294
330
291
100
AcDbEntity
  8
Layer 1
370
    18
  0
POLYLINE
  5
295
330
1E1
100
AcDbEntity
  8
Layer 1
 62
   250
370
    18
100
AcDb2dPolyline
 66
     1
 10
0.0
 20
0.0
 30
0.0
  0
VERTEX
  5
296
330
295
100
AcDbEntity
  8
Layer 1
 62
   250
370
    18
100
AcDbVertex
100
AcDb2dVertex
 10
8.29989963107639
 20
-7.464999728732638
 30
0.0
  0
VERTEX
  5
297
330
295
100
AcDbEntity
  8
Layer 1
 62
   250
370
    18
100
AcDbVertex
100
AcDb2dVertex
 10
8.741034613715277
 20
-7.464999728732638
 30
0.0
  0
SEQEND
  5
298
330
295
100
AcDbEntity
  8
Layer 1
370
    18
  0
INSERT
  5
29A
330
1E1
100
AcDbEntity
  8
Layer 1
100
AcDbBlockReference
  2
block 11
 10
0.0
 20
0.0
 30
0.0
  0
POLYLINE
  5
2A9
330
1E1
100
AcDbEntity
  8
Layer 1
 62
   250
370
    18
100
AcDb2dPolyline
 66
     1
 10
0.0
 20
0.0
 30
0.0
  0
VERTEX
  5
2AA
330
2A9
100
AcDbEntity
  8
Layer 1
 62
   250
370
    18
100
AcDbVertex
100
AcDb2dVertex
 10
5.72052001953125
 20
-7.32611083984375
 30
0.0
  0
VERTEX
  5
2AB
330
2A9
100
AcDbEntity
  8
Layer 1
 62
   250
370
    18
100
AcDbVertex
100
AcDb2dVertex
 10
8.17489963107639
 20
-7.32611083984375
 30
0.0
  0
SEQEND
  5
2AC
330
2A9
100
AcDbEntity
  8
Layer 1
370
    18
  0
POLYLINE
  5
2AD
330
1E1
100
AcDbEntity
  8
Layer 1
 62
   250
370
    18
100
AcDb2dPolyline
 66
     1
 10
0.0
 20
0.0
 30
0.0
  0
VERTEX
  5
2AE
330
2AD
100
AcDbEntity
  8
Layer 1
 62
   250
370
    18
100
AcDbVertex
100
AcDb2dVertex
 10
5.153069390190972
 20
-7.32611083984375
 30
0.0
  0
VERTEX
  5
2AF
330
2AD
100
AcDbEntity
  8
Layer 1
 62
   250
370
    18
100
AcDbVertex
100
AcDb2dVertex
 10
5.594204372829861
 20
-7.32611083984375
 30
0.0
  0
SEQEND
  5
2B0
330
2AD
100
AcDbEntity
  8
Layer 1
370
    18
  0
POLYLINE
  5
2B1
330
1E1
100
AcDbEntity
  8
Layer 1
 62
   250
370
    18
100
AcDb2dPolyline
 66
     1
 10
0.0
 20
0.0
 30
0.0
  0
VERTEX
  5
2B2
330
2B1
100
AcDbEntity
  8
Layer 1
 62
   250
370
    18
100
AcDbVertex
100
AcDb2dVertex
 10
8.29989963107639
 20
-7.32611083984375
 30
0.0
  0
VERTEX
  5
2B3
330
2B1
100
AcDbEntity
  8
Layer 1
 62
   250
370
    18
100
AcDbVertex
100
AcDb2dVertex
 10
8.741034613715277
 20
-7.32611083984375
 30
0.0
  0
SEQEND
  5
2B4
330
2B1
100
AcDbEntity
  8
Layer 1
370
    18
  0
INSERT
  5
2B6
330
1E1
100
AcDbEntity
  8
Layer 1
100
AcDbBlockReference
  2
block 12
 10
0.0
 20
0.0
 30
0.0
  0
POLYLINE
  5
2C5
330
1E1
100
AcDbEntity
  8
Layer 1
 62
   250
370
    18
100
AcDb2dPolyline
 66
     1
 10
0.0
 20
0.0
 30
0.0
  0
VERTEX
  5
2C6
330
2C5
100
AcDbEntity
  8
Layer 1
 62
   250
370
    18
100
AcDbVertex
100
AcDb2dVertex
 10
5.72052001953125
 20
-7.187221950954861
 30
0.0
  0
VERTEX
  5
2C7
330
2C5
100
AcDbEntity
  8
Layer 1
 62
   250
370
    18
100
AcDbVertex
100
AcDb2dVertex
 10
8.17489963107639
 20
-7.187221950954861
 30
0.0
  0
SEQEND
  5
2C8
330
2C5
100
AcDbEntity
  8
Layer 1
370
    18
  0
POLYLINE
  5
2C9
330
1E1
100
AcDbEntity
  8
Layer 1
 62
   250
370
    18
100
AcDb2dPolyline
 66
     1
 10
0.0
 20
0.0
 30
0.0
  0
VERTEX
  5
2CA
330
2C9
100
AcDbEntity
  8
Layer 1
 62
   250
370
    18
100
AcDbVertex
100
AcDb2dVertex
 10
5.153069390190972
 20
-7.187221950954861
 30
0.0
  0
VERTEX
  5
2CB
330
2C9
100
AcDbEntity
  8
Layer 1
 62
   250
370
    18
100
AcDbVertex
100
AcDb2dVertex
 10
5.594204372829861
 20
-7.187221950954861
 30
0.0
  0
SEQEND
  5
2CC
330
2C9
100
AcDbEntity
  8
Layer 1
370
    18
  0
POLYLINE
  5
2CD
330
1E1
100
AcDbEntity
  8
Layer 1
 62
   250
370
    18
100
AcDb2dPolyline
 66
     1
 10
0.0
 20
0.0
 30
0.0
  0
VERTEX
  5
2CE
330
2CD
100
AcDbEntity
  8
Layer 1
 62
   250
370
    18
100
AcDbVertex
100
AcDb2dVertex
 10
8.29989963107639
 20
-7.187221950954861
 30
0.0
  0
VERTEX
  5
2CF
330
2CD
100
AcDbEntity
  8
Layer 1
 62
   250
370
    18
100
AcDbVertex
100
AcDb2dVertex
 10
8.741034613715277
 20
-7.187221950954861
 30
0.0
  0
SEQEND
  5
2D0
330
2CD
100
AcDbEntity
  8
Layer 1
370
    18
  0
INSERT
  5
2D2
330
1E1
100
AcDbEntity
  8
Layer 1
100
AcDbBlockReference
  2
block 13
 10
0.0
 20
0.0
 30
0.0
  0
POLYLINE
  5
2E1
330
1E1
100
AcDbEntity
  8
Layer 1
 62
   250
370
    18
100
AcDb2dPolyline
 66
     1
 10
0.0
 20
0.0
 30
0.0
  0
VERTEX
  5
2E2
330
2E1
100
AcDbEntity
  8
Layer 1
 62
   250
370
    18
100
AcDbVertex
100
AcDb2dVertex
 10
5.72052001953125
 20
-7.048333062065971
 30
0.0
  0
VERTEX
  5
2E3
330
2E1
100
AcDbEntity
  8
Layer 1
 62
   250
370
    18
100
AcDbVertex
100
AcDb2dVertex
 10
8.17489963107639
 20
-7.048333062065971
 30
0.0
  0
SEQEND
  5
2E4
330
2E1
100
AcDbEntity
  8
Layer 1
370
    18
  0
POLYLINE
  5
2E5
330
1E1
100
AcDbEntity
  8
Layer 1
 62
   250
370
    18
100
AcDb2dPolyline
 66
     1
 10
0.0
 20
0.0
 30
0.0
  0
VERTEX
  5
2E6
330
2E5
100
AcDbEntity
  8
Layer 1
 62
   250
370
    18
100
AcDbVertex
100
AcDb2dVertex
 10
5.153069390190972
 20
-7.048333062065971
 30
0.0
  0
VERTEX
  5
2E7
330
2E5
100
AcDbEntity
  8
Layer 1
 62
   250
370
    18
100
AcDbVertex
100
AcDb2dVertex
 10
5.594204372829861
 20
-7.048333062065971
 30
0.0
  0
SEQEND
  5
2E8
330
2E5
100
AcDbEntity
  8
Layer 1
370
    18
  0
POLYLINE
  5
2E9
330
1E1
100
AcDbEntity
  8
Layer 1
 62
   250
370
    18
100
AcDb2dPolyline
 66
     1
 10
0.0
 20
0.0
 30
0.0
  0
VERTEX
  5
2EA
330
2E9
100
AcDbEntity
  8
Layer 1
 62
   250
370
    18
100
AcDbVertex
100
AcDb2dVertex
 10
8.29989963107639
 20
-7.048333062065971
 30
0.0
  0
VERTEX
  5
2EB
330
2E9
100
AcDbEntity
  8
Layer 1
 62
   250
370
    18
100
AcDbVertex
100
AcDb2dVertex
 10
8.741034613715277
 20
-7.048333062065971
 30
0.0
  0
SEQEND
  5
2EC
330
2E9
100
AcDbEntity
  8
Layer 1
370
    18
  0
INSERT
  5
2EE
330
1E1
100
AcDbEntity
  8
Layer 1
100
AcDbBlockReference
  2
block 14
 10
0.0
 20
0.0
 30
0.0
  0
POLYLINE
  5
2FD
330
1E1
100
AcDbEntity
  8
Layer 1
 62
   250
370
    18
100
AcDb2dPolyline
 66
     1
 10
0.0
 20
0.0
 30
0.0
  0
VERTEX
  5
2FE
330
2FD
100
AcDbEntity
  8
Layer 1
 62
   250
370
    18
100
AcDbVertex
100
AcDb2dVertex
 10
5.72052001953125
 20
-6.909444173177083
 30
0.0
  0
VERTEX
  5
2FF
330
2FD
100
AcDbEntity
  8
Layer 1
 62
   250
370
    18
100
AcDbVertex
100
AcDb2dVertex
 10
8.17489963107639
 20
-6.909444173177083
 30
0.0
  0
SEQEND
  5
300
330
2FD
100
AcDbEntity
  8
Layer 1
370
    18
  0
POLYLINE
  5
301
330
1E1
100
AcDbEntity
  8
Layer 1
 62
   250
370
    18
100
AcDb2dPolyline
 66
     1
 10
0.0
 20
0.0
 30
0.0
  0
VERTEX
  5
302
330
301
100
AcDbEntity
  8
Layer 1
 62
   250
370
    18
100
AcDbVertex
100
AcDb2dVertex
 10
5.153069390190972
 20
-6.909444173177083
 30
0.0
  0
VERTEX
  5
303
330
301
100
AcDbEntity
  8
Layer 1
 62
   250
370
    18
100
AcDbVertex
100
AcDb2dVertex
 10
5.594204372829861
 20
-6.909444173177083
 30
0.0
  0
SEQEND
  5
304
330
301
100
AcDbEntity
  8
Layer 1
370
    18
  0
POLYLINE
  5
305
330
1E1
100
AcDbEntity
  8
Layer 1
 62
   250
370
    18
100
AcDb2dPolyline
 66
     1
 10
0.0
 20
0.0
 30
0.0
  0
VERTEX
  5
306
330
305
100
AcDbEntity
  8
Layer 1
 62
   250
370
    18
100
AcDbVertex
100
AcDb2dVertex
 10
8.29989963107639
 20
-6.909444173177083
 30
0.0
  0
VERTEX
  5
307
330
305
100
AcDbEntity
  8
Layer 1
 62
   250
370
    18
100
AcDbVertex
100
AcDb2dVertex
 10
8.741034613715277
 20
-6.909444173177083
 30
0.0
  0
SEQEND
  5
308
330
305
100
AcDbEntity
  8
Layer 1
370
    18
  0
INSERT
  5
30A
330
1E1
100
AcDbEntity
  8
Layer 1
100
AcDbBlockReference
  2
block 15
 10
0.0
 20
0.0
 30
0.0
  0
POLYLINE
  5
319
330
1E1
100
AcDbEntity
  8
Layer 1
 62
   250
370
    18
100
AcDb2dPolyline
 66
     1
 10
0.0
 20
0.0
 30
0.0
  0
VERTEX
  5
31A
330
319
100
AcDbEntity
  8
Layer 1
 62
   250
370
    18
100
AcDbVertex
100
AcDb2dVertex
 10
5.72052001953125
 20
-6.770555284288194
 30
0.0
  0
VERTEX
  5
31B
330
319
100
AcDbEntity
  8
Layer 1
 62
   250
370
    18
100
AcDbVertex
100
AcDb2dVertex
 10
8.17489963107639
 20
-6.770555284288194
 30
0.0
  0
SEQEND
  5
31C
330
319
100
AcDbEntity
  8
Layer 1
370
    18
  0
POLYLINE
  5
31D
330
1E1
100
AcDbEntity
  8
Layer 1
 62
   250
370
    18
100
AcDb2dPolyline
 66
     1
 10
0.0
 20
0.0
 30
0.0
  0
VERTEX
  5
31E
330
31D
100
AcDbEntity
  8
Layer 1
 62
   250
370
    18
100
AcDbVertex
100
AcDb2dVertex
 10
5.153069390190972
 20
-6.770555284288194
 30
0.0
  0
VERTEX
  5
31F
330
31D
100
AcDbEntity
  8
Layer 1
 62
   250
370
    18
100
AcDbVertex
100
AcDb2dVertex
 10
5.594204372829861
 20
-6.770555284288194
 30
0.0
  0
SEQEND
  5
320
330
31D
100
AcDbEntity
  8
Layer 1
370
    18
  0
POLYLINE
  5
321
330
1E1
100
AcDbEntity
  8
Layer 1
 62
   250
370
    18
100
AcDb2dPolyline
 66
     1
 10
0.0
 20
0.0
 30
0.0
  0
VERTEX
  5
322
330
321
100
AcDbEntity
  8
Layer 1
 62
   250
370
    18
100
AcDbVertex
100
AcDb2dVertex
 10
8.29989963107639
 20
-6.770555284288194
 30
0.0
  0
VERTEX
  5
323
330
321
100
AcDbEntity
  8
Layer 1
 62
   250
370
    18
100
AcDbVertex
100
AcDb2dVertex
 10
8.741034613715277
 20
-6.770555284288194
 30
0.0
  0
SEQEND
  5
324
330
321
100
AcDbEntity
  8
Layer 1
370
    18
  0
INSERT
  5
326
330
1E1
100
AcDbEntity
  8
Layer 1
100
AcDbBlockReference
  2
block 16
 10
0.0
 20
0.0
 30
0.0
  0
POLYLINE
  5
335
330
1E1
100
AcDbEntity
  8
Layer 1
 62
   250
370
    18
100
AcDb2dPolyline
 66
     1
 10
0.0
 20
0.0
 30
0.0
  0
VERTEX
  5
336
330
335
100
AcDbEntity
  8
Layer 1
 62
   250
370
    18
100
AcDbVertex
100
AcDb2dVertex
 10
5.72052001953125
 20
-6.631666395399305
 30
0.0
  0
VERTEX
  5
337
330
335
100
AcDbEntity
  8
Layer 1
 62
   250
370
    18
100
AcDbVertex
100
AcDb2dVertex
 10
8.17489963107639
 20
-6.631666395399305
 30
0.0
  0
SEQEND
  5
338
330
335
100
AcDbEntity
  8
Layer 1
370
    18
  0
POLYLINE
  5
339
330
1E1
100
AcDbEntity
  8
Layer 1
 62
   250
370
    18
100
AcDb2dPolyline
 66
     1
 10
0.0
 20
0.0
 30
0.0
  0
VERTEX
  5
33A
330
339
100
AcDbEntity
  8
Layer 1
 62
   250
370
    18
100
AcDbVertex
100
AcDb2dVertex
 10
5.153069390190972
 20
-6.631666395399305
 30
0.0
  0
VERTEX
  5
33B
330
339
100
AcDbEntity
  8
Layer 1
 62
   250
370
    18
100
AcDbVertex
100
AcDb2dVertex
 10
5.594204372829861
 20
-6.631666395399305
 30
0.0
  0
SEQEND
  5
33C
330
339
100
AcDbEntity
  8
Layer 1
370
    18
  0
POLYLINE
  5
33D
330
1E1
100
AcDbEntity
  8
Layer 1
 62
   250
370
    18
100
AcDb2dPolyline
 66
     1
 10
0.0
 20
0.0
 30
0.0
  0
VERTEX
  5
33E
330
33D
100
AcDbEntity
  8
Layer 1
 62
   250
370
    18
100
AcDbVertex
100
AcDb2dVertex
 10
8.29989963107639
 20
-6.631666395399305
 30
0.0
  0
VERTEX
  5
33F
330
33D
100
AcDbEntity
  8
Layer 1
 62
   250
370
    18
100
AcDbVertex
100
AcDb2dVertex
 10
8.741034613715277
 20
-6.631666395399305
 30
0.0
  0
SEQEND
  5
340
330
33D
100
AcDbEntity
  8
Layer 1
370
    18
  0
INSERT
  5
342
330
1E1
100
AcDbEntity
  8
Layer 1
100
AcDbBlockReference
  2
block 17
 10
0.0
 20
0.0
 30
0.0
  0
POLYLINE
  5
351
330
1E1
100
AcDbEntity
  8
Layer 1
 62
   250
370
    18
100
AcDb2dPolyline
 66
     1
 10
0.0
 20
0.0
 30
0.0
  0
VERTEX
  5
352
330
351
100
AcDbEntity
  8
Layer 1
 62
   250
370
    18
100
AcDbVertex
100
AcDb2dVertex
 10
5.72052001953125
 20
-6.492777506510416
 30
0.0
  0
VERTEX
  5
353
330
351
100
AcDbEntity
  8
Layer 1
 62
   250
370
    18
100
AcDbVertex
100
AcDb2dVertex
 10
8.17489963107639
 20
-6.492777506510416
 30
0.0
  0
SEQEND
  5
354
330
351
100
AcDbEntity
  8
Layer 1
370
    18
  0
POLYLINE
  5
355
330
1E1
100
AcDbEntity
  8
Layer 1
 62
   250
370
    18
100
AcDb2dPolyline
 66
     1
 10
0.0
 20
0.0
 30
0.0
  0
VERTEX
  5
356
330
355
100
AcDbEntity
  8
Layer 1
 62
   250
370
    18
100
AcDbVertex
100
AcDb2dVertex
 10
5.153069390190972
 20
-6.492777506510416
 30
0.0
  0
VERTEX
  5
357
330
355
100
AcDbEntity
  8
Layer 1
 62
   250
370
    18
100
AcDbVertex
100
AcDb2dVertex
 10
5.594204372829861
 20
-6.492777506510416
 30
0.0
  0
SEQEND
  5
358
330
355
100
AcDbEntity
  8
Layer 1
370
    18
  0
POLYLINE
  5
359
330
1E1
100
AcDbEntity
  8
Layer 1
 62
   250
370
    18
100
AcDb2dPolyline
 66
     1
 10
0.0
 20
0.0
 30
0.0
  0
VERTEX
  5
35A
330
359
100
AcDbEntity
  8
Layer 1
 62
   250
370
    18
100
AcDbVertex
100
AcDb2dVertex
 10
8.29989963107639
 20
-6.492777506510416
 30
0.0
  0
VERTEX
  5
35B
330
359
100
AcDbEntity
  8
Layer 1
 62
   250
370
    18
100
AcDbVertex
100
AcDb2dVertex
 10
8.741034613715277
 20
-6.492777506510416
 30
0.0
  0
SEQEND
  5
35C
330
359
100
AcDbEntity
  8
Layer 1
370
    18
  0
INSERT
  5
35E
330
1E1
100
AcDbEntity
  8
Layer 1
100
AcDbBlockReference
  2
block 18
 10
0.0
 20
0.0
 30
0.0
  0
POLYLINE
  5
36D
330
1E1
100
AcDbEntity
  8
Layer 1
 62
   250
370
    18
100
AcDb2dPolyline
 66
     1
 10
0.0
 20
0.0
 30
0.0
  0
VERTEX
  5
36E
330
36D
100
AcDbEntity
  8
Layer 1
 62
   250
370
    18
100
AcDbVertex
100
AcDb2dVertex
 10
5.72052001953125
 20
-6.353888617621528
 30
0.0
  0
VERTEX
  5
36F
330
36D
100
AcDbEntity
  8
Layer 1
 62
   250
370
    18
100
AcDbVertex
100
AcDb2dVertex
 10
8.17489963107639
 20
-6.353888617621528
 30
0.0
  0
SEQEND
  5
370
330
36D
100
AcDbEntity
  8
Layer 1
370
    18
  0
POLYLINE
  5
371
330
1E1
100
AcDbEntity
  8
Layer 1
 62
   250
370
    18
100
AcDb2dPolyline
 66
     1
 10
0.0
 20
0.0
 30
0.0
  0
VERTEX
  5
372
330
371
100
AcDbEntity
  8
Layer 1
 62
   250
370
    18
100
AcDbVertex
100
AcDb2dVertex
 10
5.153069390190972
 20
-6.353888617621528
 30
0.0
  0
VERTEX
  5
373
330
371
100
AcDbEntity
  8
Layer 1
 62
   250
370
    18
100
AcDbVertex
100
AcDb2dVertex
 10
5.594204372829861
 20
-6.353888617621528
 30
0.0
  0
SEQEND
  5
374
330
371
100
AcDbEntity
  8
Layer 1
370
    18
  0
POLYLINE
  5
375
330
1E1
100
AcDbEntity
  8
Layer 1
 62
   250
370
    18
100
AcDb2dPolyline
 66
     1
 10
0.0
 20
0.0
 30
0.0
  0
VERTEX
  5
376
330
375
100
AcDbEntity
  8
Layer 1
 62
   250
370
    18
100
AcDbVertex
100
AcDb2dVertex
 10
8.29989963107639
 20
-6.353888617621528
 30
0.0
  0
VERTEX
  5
377
330
375
100
AcDbEntity
  8
Layer 1
 62
   250
370
    18
100
AcDbVertex
100
AcDb2dVertex
 10
8.741034613715277
 20
-6.353888617621528
 30
0.0
  0
SEQEND
  5
378
330
375
100
AcDbEntity
  8
Layer 1
370
    18
  0
INSERT
  5
37A
330
1E1
100
AcDbEntity
  8
Layer 1
100
AcDbBlockReference
  2
block 19
 10
0.0
 20
0.0
 30
0.0
  0
POLYLINE
  5
389
330
1E1
100
AcDbEntity
  8
Layer 1
 62
   250
370
    18
100
AcDb2dPolyline
 66
     1
 10
0.0
 20
0.0
 30
0.0
  0
VERTEX
  5
38A
330
389
100
AcDbEntity
  8
Layer 1
 62
   250
370
    18
100
AcDbVertex
100
AcDb2dVertex
 10
5.72052001953125
 20
-6.214999728732638
 30
0.0
  0
VERTEX
  5
38B
330
389
100
AcDbEntity
  8
Layer 1
 62
   250
370
    18
100
AcDbVertex
100
AcDb2dVertex
 10
8.17489963107639
 20
-6.214999728732638
 30
0.0
  0
SEQEND
  5
38C
330
389
100
AcDbEntity
  8
Layer 1
370
    18
  0
POLYLINE
  5
38D
330
1E1
100
AcDbEntity
  8
Layer 1
 62
   250
370
    18
100
AcDb2dPolyline
 66
     1
 10
0.0
 20
0.0
 30
0.0
  0
VERTEX
  5
38E
330
38D
100
AcDbEntity
  8
Layer 1
 62
   250
370
    18
100
AcDbVertex
100
AcDb2dVertex
 10
5.153069390190972
 20
-6.214999728732638
 30
0.0
  0
VERTEX
  5
38F
330
38D
100
AcDbEntity
  8
Layer 1
 62
   250
370
    18
100
AcDbVertex
100
AcDb2dVertex
 10
5.594204372829861
 20
-6.214999728732638
 30
0.0
  0
SEQEND
  5
390
330
38D
100
AcDbEntity
  8
Layer 1
370
    18
  0
POLYLINE
  5
391
330
1E1
100
AcDbEntity
  8
Layer 1
 62
   250
370
    18
100
AcDb2dPolyline
 66
     1
 10
0.0
 20
0.0
 30
0.0
  0
VERTEX
  5
392
330
391
100
AcDbEntity
  8
Layer 1
 62
   250
370
    18
100
AcDbVertex
100
AcDb2dVertex
 10
8.29989963107639
 20
-6.214999728732638
 30
0.0
  0
VERTEX
  5
393
330
391
100
AcDbEntity
  8
Layer 1
 62
   250
370
    18
100
AcDbVertex
100
AcDb2dVertex
 10
8.741034613715277
 20
-6.214999728732638
 30
0.0
  0
SEQEND
  5
394
330
391
100
AcDbEntity
  8
Layer 1
370
    18
  0
INSERT
  5
396
330
1E1
100
AcDbEntity
  8
Layer 1
100
AcDbBlockReference
  2
block 20
 10
0.0
 20
0.0
 30
0.0
  0
POLYLINE
  5
3A5
330
1E1
100
AcDbEntity
  8
Layer 1
 62
   250
370
    18
100
AcDb2dPolyline
 66
     1
 10
0.0
 20
0.0
 30
0.0
  0
VERTEX
  5
3A6
330
3A5
100
AcDbEntity
  8
Layer 1
 62
   250
370
    18
100
AcDbVertex
100
AcDb2dVertex
 10
5.72052001953125
 20
-6.07611083984375
 30
0.0
  0
VERTEX
  5
3A7
330
3A5
100
AcDbEntity
  8
Layer 1
 62
   250
370
    18
100
AcDbVertex
100
AcDb2dVertex
 10
8.17489963107639
 20
-6.07611083984375
 30
0.0
  0
SEQEND
  5
3A8
330
3A5
100
AcDbEntity
  8
Layer 1
370
    18
  0
POLYLINE
  5
3A9
330
1E1
100
AcDbEntity
  8
Layer 1
 62
   250
370
    18
100
AcDb2dPolyline
 66
     1
 10
0.0
 20
0.0
 30
0.0
  0
VERTEX
  5
3AA
330
3A9
100
AcDbEntity
  8
Layer 1
 62
   250
370
    18
100
AcDbVertex
100
AcDb2dVertex
 10
5.153069390190972
 20
-6.07611083984375
 30
0.0
  0
VERTEX
  5
3AB
330
3A9
100
AcDbEntity
  8
Layer 1
 62
   250
370
    18
100
AcDbVertex
100
AcDb2dVertex
 10
5.594204372829861
 20
-6.07611083984375
 30
0.0
  0
SEQEND
  5
3AC
330
3A9
100
AcDbEntity
  8
Layer 1
370
    18
  0
POLYLINE
  5
3AD
330
1E1
100
AcDbEntity
  8
Layer 1
 62
   250
370
    18
100
AcDb2dPolyline
 66
     1
 10
0.0
 20
0.0
 30
0.0
  0
VERTEX
  5
3AE
330
3AD
100
AcDbEntity
  8
Layer 1
 62
   250
370
    18
100
AcDbVertex
100
AcDb2dVertex
 10
8.29989963107639
 20
-6.07611083984375
 30
0.0
  0
VERTEX
  5
3AF
330
3AD
100
AcDbEntity
  8
Layer 1
 62
   250
370
    18
100
AcDbVertex
100
AcDb2dVertex
 10
8.741034613715277
 20
-6.07611083984375
 30
0.0
  0
SEQEND
  5
3B0
330
3AD
100
AcDbEntity
  8
Layer 1
370
    18
  0
INSERT
  5
3B2
330
1E1
100
AcDbEntity
  8
Layer 1
100
AcDbBlockReference
  2
block 21
 10
0.0
 20
0.0
 30
0.0
  0
POLYLINE
  5
3C1
330
1E1
100
AcDbEntity
  8
Layer 1
 62
   250
370
    18
100
AcDb2dPolyline
 66
     1
 10
0.0
 20
0.0
 30
0.0
  0
VERTEX
  5
3C2
330
3C1
100
AcDbEntity
  8
Layer 1
 62
   250
370
    18
100
AcDbVertex
100
AcDb2dVertex
 10
5.72052001953125
 20
-5.937221950954861
 30
0.0
  0
VERTEX
  5
3C3
330
3C1
100
AcDbEntity
  8
Layer 1
 62
   250
370
    18
100
AcDbVertex
100
AcDb2dVertex
 10
8.17489963107639
 20
-5.937221950954861
 30
0.0
  0
SEQEND
  5
3C4
330
3C1
100
AcDbEntity
  8
Layer 1
370
    18
  0
POLYLINE
  5
3C5
330
1E1
100
AcDbEntity
  8
Layer 1
 62
   250
370
    18
100
AcDb2dPolyline
 66
     1
 10
0.0
 20
0.0
 30
0.0
  0
VERTEX
  5
3C6
330
3C5
100
AcDbEntity
  8
Layer 1
 62
   250
370
    18
100
AcDbVertex
100
AcDb2dVertex
 10
5.153069390190972
 20
-5.937221950954861
 30
0.0
  0
VERTEX
  5
3C7
330
3C5
100
AcDbEntity
  8
Layer 1
 62
   250
370
    18
100
AcDbVertex
100
AcDb2dVertex
 10
5.594204372829861
 20
-5.937221950954861
 30
0.0
  0
SEQEND
  5
3C8
330
3C5
100
AcDbEntity
  8
Layer 1
370
    18
  0
POLYLINE
  5
3C9
330
1E1
100
AcDbEntity
  8
Layer 1
 62
   250
370
    18
100
AcDb2dPolyline
 66
     1
 10
0.0
 20
0.0
 30
0.0
  0
VERTEX
  5
3CA
330
3C9
100
AcDbEntity
  8
Layer 1
 62
   250
370
    18
100
AcDbVertex
100
AcDb2dVertex
 10
8.29989963107639
 20
-5.937221950954861
 30
0.0
  0
VERTEX
  5
3CB
330
3C9
100
AcDbEntity
  8
Layer 1
 62
   250
370
    18
100
AcDbVertex
100
AcDb2dVertex
 10
8.741034613715277
 20
-5.937221950954861
 30
0.0
  0
SEQEND
  5
3CC
330
3C9
100
AcDbEntity
  8
Layer 1
370
    18
  0
INSERT
  5
3CE
330
1E1
100
AcDbEntity
  8
Layer 1
100
AcDbBlockReference
  2
block 22
 10
0.0
 20
0.0
 30
0.0
  0
POLYLINE
  5
3DD
330
1E1
100
AcDbEntity
  8
Layer 1
 62
   250
370
    18
100
AcDb2dPolyline
 66
     1
 10
0.0
 20
0.0
 30
0.0
  0
VERTEX
  5
3DE
330
3DD
100
AcDbEntity
  8
Layer 1
 62
   250
370
    18
100
AcDbVertex
100
AcDb2dVertex
 10
5.72052001953125
 20
-5.798333062065972
 30
0.0
  0
VERTEX
  5
3DF
330
3DD
100
AcDbEntity
  8
Layer 1
 62
   250
370
    18
100
AcDbVertex
100
AcDb2dVertex
 10
8.17489963107639
 20
-5.798333062065972
 30
0.0
  0
SEQEND
  5
3E0
330
3DD
100
AcDbEntity
  8
Layer 1
370
    18
  0
POLYLINE
  5
3E1
330
1E1
100
AcDbEntity
  8
Layer 1
 62
   250
370
    18
100
AcDb2dPolyline
 66
     1
 10
0.0
 20
0.0
 30
0.0
  0
VERTEX
  5
3E2
330
3E1
100
AcDbEntity
  8
Layer 1
 62
   250
370
    18
100
AcDbVertex
100
AcDb2dVertex
 10
5.153069390190972
 20
-5.798333062065972
 30
0.0
  0
VERTEX
  5
3E3
330
3E1
100
AcDbEntity
  8
Layer 1
 62
   250
370
    18
100
AcDbVertex
100
AcDb2dVertex
 10
5.594204372829861
 20
-5.798333062065972
 30
0.0
  0
SEQEND
  5
3E4
330
3E1
100
AcDbEntity
  8
Layer 1
370
    18
  0
POLYLINE
  5
3E5
330
1E1
100
AcDbEntity
  8
Layer 1
 62
   250
370
    18
100
AcDb2dPolyline
 66
     1
 10
0.0
 20
0.0
 30
0.0
  0
VERTEX
  5
3E6
330
3E5
100
AcDbEntity
  8
Layer 1
 62
   250
370
    18
100
AcDbVertex
100
AcDb2dVertex
 10
8.29989963107639
 20
-5.798333062065972
 30
0.0
  0
VERTEX
  5
3E7
330
3E5
100
AcDbEntity
  8
Layer 1
 62
   250
370
    18
100
AcDbVertex
100
AcDb2dVertex
 10
8.741034613715277
 20
-5.798333062065972
 30
0.0
  0
SEQEND
  5
3E8
330
3E5
100
AcDbEntity
  8
Layer 1
370
    18
  0
INSERT
  5
3EA
330
1E1
100
AcDbEntity
  8
Layer 1
100
AcDbBlockReference
  2
block 23
 10
0.0
 20
0.0
 30
0.0
  0
POLYLINE
  5
3F9
330
1E1
100
AcDbEntity
  8
Layer 1
 62
   250
370
    18
100
AcDb2dPolyline
 66
     1
 10
0.0
 20
0.0
 30
0.0
  0
VERTEX
  5
3FA
330
3F9
100
AcDbEntity
  8
Layer 1
 62
   250
370
    18
100
AcDbVertex
100
AcDb2dVertex
 10
5.72052001953125
 20
-5.659444173177083
 30
0.0
  0
VERTEX
  5
3FB
330
3F9
100
AcDbEntity
  8
Layer 1
 62
   250
370
    18
100
AcDbVertex
100
AcDb2dVertex
 10
8.17489963107639
 20
-5.659444173177083
 30
0.0
  0
SEQEND
  5
3FC
330
3F9
100
AcDbEntity
  8
Layer 1
370
    18
  0
POLYLINE
  5
3FD
330
1E1
100
AcDbEntity
  8
Layer 1
 62
   250
370
    18
100
AcDb2dPolyline
 66
     1
 10
0.0
 20
0.0
 30
0.0
  0
VERTEX
  5
3FE
330
3FD
100
AcDbEntity
  8
Layer 1
 62
   250
370
    18
100
AcDbVertex
100
AcDb2dVertex
 10
5.153069390190972
 20
-5.659444173177083
 30
0.0
  0
VERTEX
  5
3FF
330
3FD
100
AcDbEntity
  8
Layer 1
 62
   250
370
    18
100
AcDbVertex
100
AcDb2dVertex
 10
5.594204372829861
 20
-5.659444173177083
 30
0.0
  0
SEQEND
  5
400
330
3FD
100
AcDbEntity
  8
Layer 1
370
    18
  0
POLYLINE
  5
401
330
1E1
100
AcDbEntity
  8
Layer 1
 62
   250
370
    18
100
AcDb2dPolyline
 66
     1
 10
0.0
 20
0.0
 30
0.0
  0
VERTEX
  5
402
330
401
100
AcDbEntity
  8
Layer 1
 62
   250
370
    18
100
AcDbVertex
100
AcDb2dVertex
 10
8.29989963107639
 20
-5.659444173177083
 30
0.0
  0
VERTEX
  5
403
330
401
100
AcDbEntity
  8
Layer 1
 62
   250
370
    18
100
AcDbVertex
100
AcDb2dVertex
 10
8.741034613715277
 20
-5.659444173177083
 30
0.0
  0
SEQEND
  5
404
330
401
100
AcDbEntity
  8
Layer 1
370
    18
  0
INSERT
  5
406
330
1E1
100
AcDbEntity
  8
Layer 1
100
AcDbBlockReference
  2
block 24
 10
0.0
 20
0.0
 30
0.0
  0
POLYLINE
  5
415
330
1E1
100
AcDbEntity
  8
Layer 1
 62
   250
370
    18
100
AcDb2dPolyline
 66
     1
 10
0.0
 20
0.0
 30
0.0
  0
VERTEX
  5
416
330
415
100
AcDbEntity
  8
Layer 1
 62
   250
370
    18
100
AcDbVertex
100
AcDb2dVertex
 10
5.72052001953125
 20
-5.520555284288194
 30
0.0
  0
VERTEX
  5
417
330
415
100
AcDbEntity
  8
Layer 1
 62
   250
370
    18
100
AcDbVertex
100
AcDb2dVertex
 10
8.17489963107639
 20
-5.520555284288194
 30
0.0
  0
SEQEND
  5
418
330
415
100
AcDbEntity
  8
Layer 1
370
    18
  0
POLYLINE
  5
419
330
1E1
100
AcDbEntity
  8
Layer 1
 62
   250
370
    18
100
AcDb2dPolyline
 66
     1
 10
0.0
 20
0.0
 30
0.0
  0
VERTEX
  5
41A
330
419
100
AcDbEntity
  8
Layer 1
 62
   250
370
    18
100
AcDbVertex
100
AcDb2dVertex
 10
5.153069390190972
 20
-5.520555284288194
 30
0.0
  0
VERTEX
  5
41B
330
419
100
AcDbEntity
  8
Layer 1
 62
   250
370
    18
100
AcDbVertex
100
AcDb2dVertex
 10
5.594204372829861
 20
-5.520555284288194
 30
0.0
  0
SEQEND
  5
41C
330
419
100
AcDbEntity
  8
Layer 1
370
    18
  0
POLYLINE
  5
41D
330
1E1
100
AcDbEntity
  8
Layer 1
 62
   250
370
    18
100
AcDb2dPolyline
 66
     1
 10
0.0
 20
0.0
 30
0.0
  0
VERTEX
  5
41E
330
41D
100
AcDbEntity
  8
Layer 1
 62
   250
370
    18
100
AcDbVertex
100
AcDb2dVertex
 10
8.29989963107639
 20
-5.520555284288194
 30
0.0
  0
VERTEX
  5
41F
330
41D
100
AcDbEntity
  8
Layer 1
 62
   250
370
    18
100
AcDbVertex
100
AcDb2dVertex
 10
8.741034613715277
 20
-5.520555284288194
 30
0.0
  0
SEQEND
  5
420
330
41D
100
AcDbEntity
  8
Layer 1
370
    18
  0
INSERT
  5
422
330
1E1
100
AcDbEntity
  8
Layer 1
100
AcDbBlockReference
  2
block 25
 10
0.0
 20
0.0
 30
0.0
  0
POLYLINE
  5
431
330
1E1
100
AcDbEntity
  8
Layer 1
 62
   250
370
    18
100
AcDb2dPolyline
 66
     1
 10
0.0
 20
0.0
 30
0.0
  0
VERTEX
  5
432
330
431
100
AcDbEntity
  8
Layer 1
 62
   250
370
    18
100
AcDbVertex
100
AcDb2dVertex
 10
5.72052001953125
 20
-5.381666395399305
 30
0.0
  0
VERTEX
  5
433
330
431
100
AcDbEntity
  8
Layer 1
 62
   250
370
    18
100
AcDbVertex
100
AcDb2dVertex
 10
8.17489963107639
 20
-5.381666395399305
 30
0.0
  0
SEQEND
  5
434
330
431
100
AcDbEntity
  8
Layer 1
370
    18
  0
POLYLINE
  5
435
330
1E1
100
AcDbEntity
  8
Layer 1
 62
   250
370
    18
100
AcDb2dPolyline
 66
     1
 10
0.0
 20
0.0
 30
0.0
  0
VERTEX
  5
436
330
435
100
AcDbEntity
  8
Layer 1
 62
   250
370
    18
100
AcDbVertex
100
AcDb2dVertex
 10
5.153069390190972
 20
-5.381666395399305
 30
0.0
  0
VERTEX
  5
437
330
435
100
AcDbEntity
  8
Layer 1
 62
   250
370
    18
100
AcDbVertex
100
AcDb2dVertex
 10
5.594204372829861
 20
-5.381666395399305
 30
0.0
  0
SEQEND
  5
438
330
435
100
AcDbEntity
  8
Layer 1
370
    18
  0
POLYLINE
  5
439
330
1E1
100
AcDbEntity
  8
Layer 1
 62
   250
370
    18
100
AcDb2dPolyline
 66
     1
 10
0.0
 20
0.0
 30
0.0
  0
VERTEX
  5
43A
330
439
100
AcDbEntity
  8
Layer 1
 62
   250
370
    18
100
AcDbVertex
100
AcDb2dVertex
 10
8.29989963107639
 20
-5.381666395399305
 30
0.0
  0
VERTEX
  5
43B
330
439
100
AcDbEntity
  8
Layer 1
 62
   250
370
    18
100
AcDbVertex
100
AcDb2dVertex
 10
8.741034613715277
 20
-5.381666395399305
 30
0.0
  0
SEQEND
  5
43C
330
439
100
AcDbEntity
  8
Layer 1
370
    18
  0
INSERT
  5
43E
330
1E1
100
AcDbEntity
  8
Layer 1
100
AcDbBlockReference
  2
block 26
 10
0.0
 20
0.0
 30
0.0
  0
POLYLINE
  5
44D
330
1E1
100
AcDbEntity
  8
Layer 1
 62
   250
370
    18
100
AcDb2dPolyline
 66
     1
 10
0.0
 20
0.0
 30
0.0
  0
VERTEX
  5
44E
330
44D
100
AcDbEntity
  8
Layer 1
 62
   250
370
    18
100
AcDbVertex
100
AcDb2dVertex
 10
5.72052001953125
 20
-5.242777506510416
 30
0.0
  0
VERTEX
  5
44F
330
44D
100
AcDbEntity
  8
Layer 1
 62
   250
370
    18
100
AcDbVertex
100
AcDb2dVertex
 10
8.17489963107639
 20
-5.242777506510416
 30
0.0
  0
SEQEND
  5
450
330
44D
100
AcDbEntity
  8
Layer 1
370
    18
  0
POLYLINE
  5
451
330
1E1
100
AcDbEntity
  8
Layer 1
 62
   250
370
    18
100
AcDb2dPolyline
 66
     1
 10
0.0
 20
0.0
 30
0.0
  0
VERTEX
  5
452
330
451
100
AcDbEntity
  8
Layer 1
 62
   250
370
    18
100
AcDbVertex
100
AcDb2dVertex
 10
5.153069390190972
 20
-5.242777506510416
 30
0.0
  0
VERTEX
  5
453
330
451
100
AcDbEntity
  8
Layer 1
 62
   250
370
    18
100
AcDbVertex
100
AcDb2dVertex
 10
5.594204372829861
 20
-5.242777506510416
 30
0.0
  0
SEQEND
  5
454
330
451
100
AcDbEntity
  8
Layer 1
370
    18
  0
POLYLINE
  5
455
330
1E1
100
AcDbEntity
  8
Layer 1
 62
   250
370
    18
100
AcDb2dPolyline
 66
     1
 10
0.0
 20
0.0
 30
0.0
  0
VERTEX
  5
456
330
455
100
AcDbEntity
  8
Layer 1
 62
   250
370
    18
100
AcDbVertex
100
AcDb2dVertex
 10
8.29989963107639
 20
-5.242777506510416
 30
0.0
  0
VERTEX
  5
457
330
455
100
AcDbEntity
  8
Layer 1
 62
   250
370
    18
100
AcDbVertex
100
AcDb2dVertex
 10
8.741034613715277
 20
-5.242777506510416
 30
0.0
  0
SEQEND
  5
458
330
455
100
AcDbEntity
  8
Layer 1
370
    18
  0
INSERT
  5
45A
330
1E1
100
AcDbEntity
  8
Layer 1
100
AcDbBlockReference
  2
block 27
 10
0.0
 20
0.0
 30
0.0
  0
POLYLINE
  5
469
330
1E1
100
AcDbEntity
  8
Layer 1
 62
   250
370
    18
100
AcDb2dPolyline
 66
     1
 10
0.0
 20
0.0
 30
0.0
  0
VERTEX
  5
46A
330
469
100
AcDbEntity
  8
Layer 1
 62
   250
370
    18
100
AcDbVertex
100
AcDb2dVertex
 10
5.72052001953125
 20
-5.103888617621528
 30
0.0
  0
VERTEX
  5
46B
330
469
100
AcDbEntity
  8
Layer 1
 62
   250
370
    18
100
AcDbVertex
100
AcDb2dVertex
 10
8.17489963107639
 20
-5.103888617621528
 30
0.0
  0
SEQEND
  5
46C
330
469
100
AcDbEntity
  8
Layer 1
370
    18
  0
POLYLINE
  5
46D
330
1E1
100
AcDbEntity
  8
Layer 1
 62
   250
370
    18
100
AcDb2dPolyline
 66
     1
 10
0.0
 20
0.0
 30
0.0
  0
VERTEX
  5
46E
330
46D
100
AcDbEntity
  8
Layer 1
 62
   250
370
    18
100
AcDbVertex
100
AcDb2dVertex
 10
5.153069390190972
 20
-5.103888617621528
 30
0.0
  0
VERTEX
  5
46F
330
46D
100
AcDbEntity
  8
Layer 1
 62
   250
370
    18
100
AcDbVertex
100
AcDb2dVertex
 10
5.594204372829861
 20
-5.103888617621528
 30
0.0
  0
SEQEND
  5
470
330
46D
100
AcDbEntity
  8
Layer 1
370
    18
  0
POLYLINE
  5
471
330
1E1
100
AcDbEntity
  8
Layer 1
 62
   250
370
    18
100
AcDb2dPolyline
 66
     1
 10
0.0
 20
0.0
 30
0.0
  0
VERTEX
  5
472
330
471
100
AcDbEntity
  8
Layer 1
 62
   250
370
    18
100
AcDbVertex
100
AcDb2dVertex
 10
8.29989963107639
 20
-5.103888617621528
 30
0.0
  0
VERTEX
  5
473
330
471
100
AcDbEntity
  8
Layer 1
 62
   250
370
    18
100
AcDbVertex
100
AcDb2dVertex
 10
8.741034613715277
 20
-5.103888617621528
 30
0.0
  0
SEQEND
  5
474
330
471
100
AcDbEntity
  8
Layer 1
370
    18
  0
INSERT
  5
476
330
1E1
100
AcDbEntity
  8
Layer 1
100
AcDbBlockReference
  2
block 28
 10
0.0
 20
0.0
 30
0.0
  0
POLYLINE
  5
485
330
1E1
100
AcDbEntity
  8
Layer 1
 62
   250
370
    18
100
AcDb2dPolyline
 66
     1
 10
0.0
 20
0.0
 30
0.0
  0
VERTEX
  5
486
330
485
100
AcDbEntity
  8
Layer 1
 62
   250
370
    18
100
AcDbVertex
100
AcDb2dVertex
 10
5.72052001953125
 20
-4.964999728732638
 30
0.0
  0
VERTEX
  5
487
330
485
100
AcDbEntity
  8
Layer 1
 62
   250
370
    18
100
AcDbVertex
100
AcDb2dVertex
 10
8.17489963107639
 20
-4.964999728732638
 30
0.0
  0
SEQEND
  5
488
330
485
100
AcDbEntity
  8
Layer 1
370
    18
  0
POLYLINE
  5
489
330
1E1
100
AcDbEntity
  8
Layer 1
 62
   250
370
    18
100
AcDb2dPolyline
 66
     1
 10
0.0
 20
0.0
 30
0.0
  0
VERTEX
  5
48A
330
489
100
AcDbEntity
  8
Layer 1
 62
   250
370
    18
100
AcDbVertex
100
AcDb2dVertex
 10
5.153069390190972
 20
-4.964999728732638
 30
0.0
  0
VERTEX
  5
48B
330
489
100
AcDbEntity
  8
Layer 1
 62
   250
370
    18
100
AcDbVertex
100
AcDb2dVertex
 10
5.594204372829861
 20
-4.964999728732638
 30
0.0
  0
SEQEND
  5
48C
330
489
100
AcDbEntity
  8
Layer 1
370
    18
  0
POLYLINE
  5
48D
330
1E1
100
AcDbEntity
  8
Layer 1
 62
   250
370
    18
100
AcDb2dPolyline
 66
     1
 10
0.0
 20
0.0
 30
0.0
  0
VERTEX
  5
48E
330
48D
100
AcDbEntity
  8
Layer 1
 62
   250
370
    18
100
AcDbVertex
100
AcDb2dVertex
 10
8.29989963107639
 20
-4.964999728732638
 30
0.0
  0
VERTEX
  5
48F
330
48D
100
AcDbEntity
  8
Layer 1
 62
   250
370
    18
100
AcDbVertex
100
AcDb2dVertex
 10
8.741034613715277
 20
-4.964999728732638
 30
0.0
  0
SEQEND
  5
490
330
48D
100
AcDbEntity
  8
Layer 1
370
    18
  0
INSERT
  5
492
330
1E1
100
AcDbEntity
  8
Layer 1
100
AcDbBlockReference
  2
block 29
 10
0.0
 20
0.0
 30
0.0
  0
POLYLINE
  5
4A1
330
1E1
100
AcDbEntity
  8
Layer 1
 62
   250
370
    18
100
AcDb2dPolyline
 66
     1
 10
0.0
 20
0.0
 30
0.0
  0
VERTEX
  5
4A2
330
4A1
100
AcDbEntity
  8
Layer 1
 62
   250
370
    18
100
AcDbVertex
100
AcDb2dVertex
 10
5.72052001953125
 20
-4.82611083984375
 30
0.0
  0
VERTEX
  5
4A3
330
4A1
100
AcDbEntity
  8
Layer 1
 62
   250
370
    18
100
AcDbVertex
100
AcDb2dVertex
 10
8.17489963107639
 20
-4.82611083984375
 30
0.0
  0
SEQEND
  5
4A4
330
4A1
100
AcDbEntity
  8
Layer 1
370
    18
  0
POLYLINE
  5
4A5
330
1E1
100
AcDbEntity
  8
Layer 1
 62
   250
370
    18
100
AcDb2dPolyline
 66
     1
 10
0.0
 20
0.0
 30
0.0
  0
VERTEX
  5
4A6
330
4A5
100
AcDbEntity
  8
Layer 1
 62
   250
370
    18
100
AcDbVertex
100
AcDb2dVertex
 10
5.153069390190972
 20
-4.82611083984375
 30
0.0
  0
VERTEX
  5
4A7
330
4A5
100
AcDbEntity
  8
Layer 1
 62
   250
370
    18
100
AcDbVertex
100
AcDb2dVertex
 10
5.594204372829861
 20
-4.82611083984375
 30
0.0
  0
SEQEND
  5
4A8
330
4A5
100
AcDbEntity
  8
Layer 1
370
    18
  0
POLYLINE
  5
4A9
330
1E1
100
AcDbEntity
  8
Layer 1
 62
   250
370
    18
100
AcDb2dPolyline
 66
     1
 10
0.0
 20
0.0
 30
0.0
  0
VERTEX
  5
4AA
330
4A9
100
AcDbEntity
  8
Layer 1
 62
   250
370
    18
100
AcDbVertex
100
AcDb2dVertex
 10
8.29989963107639
 20
-4.82611083984375
 30
0.0
  0
VERTEX
  5
4AB
330
4A9
100
AcDbEntity
  8
Layer 1
 62
   250
370
    18
100
AcDbVertex
100
AcDb2dVertex
 10
8.741034613715277
 20
-4.82611083984375
 30
0.0
  0
SEQEND
  5
4AC
330
4A9
100
AcDbEntity
  8
Layer 1
370
    18
  0
ENDBLK
  5
1E4
330
1E1
100
AcDbEntity
  8
0
100
AcDbBlockEnd
  0
BLOCK
  5
1F3
330
1F1
100
AcDbEntity
  8
0
100
AcDbBlockBegin
  2
block 5
 70
     0
 71
     0
 10
0.0
 20
0.0
 30
0.0
  3
block 5
  1

  0
POLYLINE
  5
1F5
330
1F1
100
AcDbEntity
  8
Layer 1
 62
   250
370
    18
100
AcDb2dPolyline
 66
     1
 10
0.0
 20
0.0
 30
0.0
  0
VERTEX
  5
1F6
330
1F5
100
AcDbEntity
  8
Layer 1
 62
   250
370
    18
100
AcDbVertex
100
AcDb2dVertex
 10
5.153069390190972
 20
-8.2288818359375
 30
0.0
  0
VERTEX
  5
1F7
330
1F5
100
AcDbEntity
  8
Layer 1
 62
   250
370
    18
100
AcDbVertex
100
AcDb2dVertex
 10
6.327006022135416
 20
-8.2288818359375
 30
0.0
  0
SEQEND
  5
1F8
330
1F5
100
AcDbEntity
  8
Layer 1
370
    18
  0
POLYLINE
  5
1F9
330
1F1
100
AcDbEntity
  8
Layer 1
 62
   250
370
    18
100
AcDb2dPolyline
 66
     1
 10
0.0
 20
0.0
 30
0.0
  0
VERTEX
  5
1FA
330
1F9
100
AcDbEntity
  8
Layer 1
 62
   250
370
    18
100
AcDbVertex
100
AcDb2dVertex
 10
6.452006022135416
 20
-8.2288818359375
 30
0.0
  0
VERTEX
  5
1FB
330
1F9
100
AcDbEntity
  8
Layer 1
 62
   250
370
    18
100
AcDbVertex
100
AcDb2dVertex
 10
7.452006022135416
 20
-8.2288818359375
 30
0.0
  0
SEQEND
  5
1FC
330
1F9
100
AcDbEntity
  8
Layer 1
370
    18
  0
POLYLINE
  5
1FD
330
1F1
100
AcDbEntity
  8
Layer 1
 62
   250
370
    18
100
AcDb2dPolyline
 66
     1
 10
0.0
 20
0.0
 30
0.0
  0
VERTEX
  5
1FE
330
1FD
100
AcDbEntity
  8
Layer 1
 62
   250
370
    18
100
AcDbVertex
100
AcDb2dVertex
 10
7.577006022135416
 20
-8.2288818359375
 30
0.0
  0
VERTEX
  5
1FF
330
1FD
100
AcDbEntity
  8
Layer 1
 62
   250
370
    18
100
AcDbVertex
100
AcDb2dVertex
 10
8.741034613715277
 20
-8.2288818359375
 30
0.0
  0
SEQEND
  5
200
330
1FD
100
AcDbEntity
  8
Layer 1
370
    18
  0
ENDBLK
  5
1F4
330
1F1
100
AcDbEntity
  8
0
100
AcDbBlockEnd
  0
BLOCK
  5
20F
330
20D
100
AcDbEntity
  8
0
100
AcDbBlockBegin
  2
block 6
 70
     0
 71
     0
 10
0.0
 20
0.0
 30
0.0
  3
block 6
  1

  0
POLYLINE
  5
211
330
20D
100
AcDbEntity
  8
Layer 1
 62
   250
370
    18
100
AcDb2dPolyline
 66
     1
 10
0.0
 20
0.0
 30
0.0
  0
VERTEX
  5
212
330
211
100
AcDbEntity
  8
Layer 1
 62
   250
370
    18
100
AcDbVertex
100
AcDb2dVertex
 10
5.153069390190972
 20
-8.08999294704861
 30
0.0
  0
VERTEX
  5
213
330
211
100
AcDbEntity
  8
Layer 1
 62
   250
370
    18
100
AcDbVertex
100
AcDb2dVertex
 10
6.327006022135416
 20
-8.08999294704861
 30
0.0
  0
SEQEND
  5
214
330
211
100
AcDbEntity
  8
Layer 1
370
    18
  0
POLYLINE
  5
215
330
20D
100
AcDbEntity
  8
Layer 1
 62
   250
370
    18
100
AcDb2dPolyline
 66
     1
 10
0.0
 20
0.0
 30
0.0
  0
VERTEX
  5
216
330
215
100
AcDbEntity
  8
Layer 1
 62
   250
370
    18
100
AcDbVertex
100
AcDb2dVertex
 10
6.452006022135416
 20
-8.08999294704861
 30
0.0
  0
VERTEX
  5
217
330
215
100
AcDbEntity
  8
Layer 1
 62
   250
370
    18
100
AcDbVertex
100
AcDb2dVertex
 10
7.452006022135416
 20
-8.08999294704861
 30
0.0
  0
SEQEND
  5
218
330
215
100
AcDbEntity
  8
Layer 1
370
    18
  0
POLYLINE
  5
219
330
20D
100
AcDbEntity
  8
Layer 1
 62
   250
370
    18
100
AcDb2dPolyline
 66
     1
 10
0.0
 20
0.0
 30
0.0
  0
VERTEX
  5
21A
330
219
100
AcDbEntity
  8
Layer 1
 62
   250
370
    18
100
AcDbVertex
100
AcDb2dVertex
 10
7.577006022135416
 20
-8.08999294704861
 30
0.0
  0
VERTEX
  5
21B
330
219
100
AcDbEntity
  8
Layer 1
 62
   250
370
    18
100
AcDbVertex
100
AcDb2dVertex
 10
8.741034613715277
 20
-8.08999294704861
 30
0.0
  0
SEQEND
  5
21C
330
219
100
AcDbEntity
  8
Layer 1
370
    18
  0
ENDBLK
  5
210
330
20D
100
AcDbEntity
  8
0
100
AcDbBlockEnd
  0
BLOCK
  5
22B
330
229
100
AcDbEntity
  8
0
100
AcDbBlockBegin
  2
block 7
 70
     0
 71
     0
 10
0.0
 20
0.0
 30
0.0
  3
block 7
  1

  0
POLYLINE
  5
22D
330
229
100
AcDbEntity
  8
Layer 1
 62
   250
370
    18
100
AcDb2dPolyline
 66
     1
 10
0.0
 20
0.0
 30
0.0
  0
VERTEX
  5
22E
330
22D
100
AcDbEntity
  8
Layer 1
 62
   250
370
    18
100
AcDbVertex
100
AcDb2dVertex
 10
5.153069390190972
 20
-7.951104058159721
 30
0.0
  0
VERTEX
  5
22F
330
22D
100
AcDbEntity
  8
Layer 1
 62
   250
370
    18
100
AcDbVertex
100
AcDb2dVertex
 10
6.327006022135416
 20
-7.951104058159721
 30
0.0
  0
SEQEND
  5
230
330
22D
100
AcDbEntity
  8
Layer 1
370
    18
  0
POLYLINE
  5
231
330
229
100
AcDbEntity
  8
Layer 1
 62
   250
370
    18
100
AcDb2dPolyline
 66
     1
 10
0.0
 20
0.0
 30
0.0
  0
VERTEX
  5
232
330
231
100
AcDbEntity
  8
Layer 1
 62
   250
370
    18
100
AcDbVertex
100
AcDb2dVertex
 10
6.452006022135416
 20
-7.951104058159721
 30
0.0
  0
VERTEX
  5
233
330
231
100
AcDbEntity
  8
Layer 1
 62
   250
370
    18
100
AcDbVertex
100
AcDb2dVertex
 10
7.452006022135416
 20
-7.951104058159721
 30
0.0
  0
SEQEND
  5
234
330
231
100
AcDbEntity
  8
Layer 1
370
    18
  0
POLYLINE
  5
235
330
229
100
AcDbEntity
  8
Layer 1
 62
   250
370
    18
100
AcDb2dPolyline
 66
     1
 10
0.0
 20
0.0
 30
0.0
  0
VERTEX
  5
236
330
235
100
AcDbEntity
  8
Layer 1
 62
   250
370
    18
100
AcDbVertex
100
AcDb2dVertex
 10
7.577006022135416
 20
-7.951104058159721
 30
0.0
  0
VERTEX
  5
237
330
235
100
AcDbEntity
  8
Layer 1
 62
   250
370
    18
100
AcDbVertex
100
AcDb2dVertex
 10
8.741034613715277
 20
-7.951104058159721
 30
0.0
  0
SEQEND
  5
238
330
235
100
AcDbEntity
  8
Layer 1
370
    18
  0
ENDBLK
  5
22C
330
229
100
AcDbEntity
  8
0
100
AcDbBlockEnd
  0
BLOCK
  5
247
330
245
100
AcDbEntity
  8
0
100
AcDbBlockBegin
  2
block 8
 70
     0
 71
     0
 10
0.0
 20
0.0
 30
0.0
  3
block 8
  1

  0
POLYLINE
  5
249
330
245
100
AcDbEntity
  8
Layer 1
 62
   250
370
    18
100
AcDb2dPolyline
 66
     1
 10
0.0
 20
0.0
 30
0.0
  0
VERTEX
  5
24A
330
249
100
AcDbEntity
  8
Layer 1
 62
   250
370
    18
100
AcDbVertex
100
AcDb2dVertex
 10
5.153069390190972
 20
-7.812215169270833
 30
0.0
  0
VERTEX
  5
24B
330
249
100
AcDbEntity
  8
Layer 1
 62
   250
370
    18
100
AcDbVertex
100
AcDb2dVertex
 10
6.327006022135416
 20
-7.812215169270833
 30
0.0
  0
SEQEND
  5
24C
330
249
100
AcDbEntity
  8
Layer 1
370
    18
  0
POLYLINE
  5
24D
330
245
100
AcDbEntity
  8
Layer 1
 62
   250
370
    18
100
AcDb2dPolyline
 66
     1
 10
0.0
 20
0.0
 30
0.0
  0
VERTEX
  5
24E
330
24D
100
AcDbEntity
  8
Layer 1
 62
   250
370
    18
100
AcDbVertex
100
AcDb2dVertex
 10
6.452006022135416
 20
-7.812215169270833
 30
0.0
  0
VERTEX
  5
24F
330
24D
100
AcDbEntity
  8
Layer 1
 62
   250
370
    18
100
AcDbVertex
100
AcDb2dVertex
 10
7.452006022135416
 20
-7.812215169270833
 30
0.0
  0
SEQEND
  5
250
330
24D
100
AcDbEntity
  8
Layer 1
370
    18
  0
POLYLINE
  5
251
330
245
100
AcDbEntity
  8
Layer 1
 62
   250
370
    18
100
AcDb2dPolyline
 66
     1
 10
0.0
 20
0.0
 30
0.0
  0
VERTEX
  5
252
330
251
100
AcDbEntity
  8
Layer 1
 62
   250
370
    18
100
AcDbVertex
100
AcDb2dVertex
 10
7.577006022135416
 20
-7.812215169270833
 30
0.0
  0
VERTEX
  5
253
330
251
100
AcDbEntity
  8
Layer 1
 62
   250
370
    18
100
AcDbVertex
100
AcDb2dVertex
 10
8.741034613715277
 20
-7.812215169270833
 30
0.0
  0
SEQEND
  5
254
330
251
100
AcDbEntity
  8
Layer 1
370
    18
  0
ENDBLK
  5
248
330
245
100
AcDbEntity
  8
0
100
AcDbBlockEnd
  0
BLOCK
  5
263
330
261
100
AcDbEntity
  8
0
100
AcDbBlockBegin
  2
block 9
 70
     0
 71
     0
 10
0.0
 20
0.0
 30
0.0
  3
block 9
  1

  0
POLYLINE
  5
265
330
261
100
AcDbEntity
  8
Layer 1
 62
   250
370
    18
100
AcDb2dPolyline
 66
     1
 10
0.0
 20
0.0
 30
0.0
  0
VERTEX
  5
266
330
265
100
AcDbEntity
  8
Layer 1
 62
   250
370
    18
100
AcDbVertex
100
AcDb2dVertex
 10
5.153069390190972
 20
-7.673326280381944
 30
0.0
  0
VERTEX
  5
267
330
265
100
AcDbEntity
  8
Layer 1
 62
   250
370
    18
100
AcDbVertex
100
AcDb2dVertex
 10
6.327006022135416
 20
-7.673326280381944
 30
0.0
  0
SEQEND
  5
268
330
265
100
AcDbEntity
  8
Layer 1
370
    18
  0
POLYLINE
  5
269
330
261
100
AcDbEntity
  8
Layer 1
 62
   250
370
    18
100
AcDb2dPolyline
 66
     1
 10
0.0
 20
0.0
 30
0.0
  0
VERTEX
  5
26A
330
269
100
AcDbEntity
  8
Layer 1
 62
   250
370
    18
100
AcDbVertex
100
AcDb2dVertex
 10
6.452006022135416
 20
-7.673326280381944
 30
0.0
  0
VERTEX
  5
26B
330
269
100
AcDbEntity
  8
Layer 1
 62
   250
370
    18
100
AcDbVertex
100
AcDb2dVertex
 10
7.452006022135416
 20
-7.673326280381944
 30
0.0
  0
SEQEND
  5
26C
330
269
100
AcDbEntity
  8
Layer 1
370
    18
  0
POLYLINE
  5
26D
330
261
100
AcDbEntity
  8
Layer 1
 62
   250
370
    18
100
AcDb2dPolyline
 66
     1
 10
0.0
 20
0.0
 30
0.0
  0
VERTEX
  5
26E
330
26D
100
AcDbEntity
  8
Layer 1
 62
   250
370
    18
100
AcDbVertex
100
AcDb2dVertex
 10
7.577006022135416
 20
-7.673326280381944
 30
0.0
  0
VERTEX
  5
26F
330
26D
100
AcDbEntity
  8
Layer 1
 62
   250
370
    18
100
AcDbVertex
100
AcDb2dVertex
 10
8.741034613715277
 20
-7.673326280381944
 30
0.0
  0
SEQEND
  5
270
330
26D
100
AcDbEntity
  8
Layer 1
370
    18
  0
ENDBLK
  5
264
330
261
100
AcDbEntity
  8
0
100
AcDbBlockEnd
  0
BLOCK
  5
27F
330
27D
100
AcDbEntity
  8
0
100
AcDbBlockBegin
  2
block 10
 70
     0
 71
     0
 10
0.0
 20
0.0
 30
0.0
  3
block 10
  1

  0
POLYLINE
  5
281
330
27D
100
AcDbEntity
  8
Layer 1
 62
   250
370
    18
100
AcDb2dPolyline
 66
     1
 10
0.0
 20
0.0
 30
0.0
  0
VERTEX
  5
282
330
281
100
AcDbEntity
  8
Layer 1
 62
   250
370
    18
100
AcDbVertex
100
AcDb2dVertex
 10
5.153069390190972
 20
-7.534444173177083
 30
0.0
  0
VERTEX
  5
283
330
281
100
AcDbEntity
  8
Layer 1
 62
   250
370
    18
100
AcDbVertex
100
AcDb2dVertex
 10
6.327006022135416
 20
-7.534444173177083
 30
0.0
  0
SEQEND
  5
284
330
281
100
AcDbEntity
  8
Layer 1
370
    18
  0
POLYLINE
  5
285
330
27D
100
AcDbEntity
  8
Layer 1
 62
   250
370
    18
100
AcDb2dPolyline
 66
     1
 10
0.0
 20
0.0
 30
0.0
  0
VERTEX
  5
286
330
285
100
AcDbEntity
  8
Layer 1
 62
   250
370
    18
100
AcDbVertex
100
AcDb2dVertex
 10
6.452006022135416
 20
-7.534444173177083
 30
0.0
  0
VERTEX
  5
287
330
285
100
AcDbEntity
  8
Layer 1
 62
   250
370
    18
100
AcDbVertex
100
AcDb2dVertex
 10
7.452006022135416
 20
-7.534444173177083
 30
0.0
  0
SEQEND
  5
288
330
285
100
AcDbEntity
  8
Layer 1
370
    18
  0
POLYLINE
  5
289
330
27D
100
AcDbEntity
  8
Layer 1
 62
   250
370
    18
100
AcDb2dPolyline
 66
     1
 10
0.0
 20
0.0
 30
0.0
  0
VERTEX
  5
28A
330
289
100
AcDbEntity
  8
Layer 1
 62
   250
370
    18
100
AcDbVertex
100
AcDb2dVertex
 10
7.577006022135416
 20
-7.534444173177083
 30
0.0
  0
VERTEX
  5
28B
330
289
100
AcDbEntity
  8
Layer 1
 62
   250
370
    18
100
AcDbVertex
100
AcDb2dVertex
 10
8.741034613715277
 20
-7.534444173177083
 30
0.0
  0
SEQEND
  5
28C
330
289
100
AcDbEntity
  8
Layer 1
370
    18
  0
ENDBLK
  5
280
330
27D
100
AcDbEntity
  8
0
100
AcDbBlockEnd
  0
BLOCK
  5
29B
330
299
100
AcDbEntity
  8
0
100
AcDbBlockBegin
  2
block 11
 70
     0
 71
     0
 10
0.0
 20
0.0
 30
0.0
  3
block 11
  1

  0
POLYLINE
  5
29D
330
299
100
AcDbEntity
  8
Layer 1
 62
   250
370
    18
100
AcDb2dPolyline
 66
     1
 10
0.0
 20
0.0
 30
0.0
  0
VERTEX
  5
29E
330
29D
100
AcDbEntity
  8
Layer 1
 62
   250
370
    18
100
AcDbVertex
100
AcDb2dVertex
 10
5.153069390190972
 20
-7.395555284288194
 30
0.0
  0
VERTEX
  5
29F
330
29D
100
AcDbEntity
  8
Layer 1
 62
   250
370
    18
100
AcDbVertex
100
AcDb2dVertex
 10
6.327006022135416
 20
-7.395555284288194
 30
0.0
  0
SEQEND
  5
2A0
330
29D
100
AcDbEntity
  8
Layer 1
370
    18
  0
POLYLINE
  5
2A1
330
299
100
AcDbEntity
  8
Layer 1
 62
   250
370
    18
100
AcDb2dPolyline
 66
     1
 10
0.0
 20
0.0
 30
0.0
  0
VERTEX
  5
2A2
330
2A1
100
AcDbEntity
  8
Layer 1
 62
   250
370
    18
100
AcDbVertex
100
AcDb2dVertex
 10
6.452006022135416
 20
-7.395555284288194
 30
0.0
  0
VERTEX
  5
2A3
330
2A1
100
AcDbEntity
  8
Layer 1
 62
   250
370
    18
100
AcDbVertex
100
AcDb2dVertex
 10
7.452006022135416
 20
-7.395555284288194
 30
0.0
  0
SEQEND
  5
2A4
330
2A1
100
AcDbEntity
  8
Layer 1
370
    18
  0
POLYLINE
  5
2A5
330
299
100
AcDbEntity
  8
Layer 1
 62
   250
370
    18
100
AcDb2dPolyline
 66
     1
 10
0.0
 20
0.0
 30
0.0
  0
VERTEX
  5
2A6
330
2A5
100
AcDbEntity
  8
Layer 1
 62
   250
370
    18
100
AcDbVertex
100
AcDb2dVertex
 10
7.577006022135416
 20
-7.395555284288194
 30
0.0
  0
VERTEX
  5
2A7
330
2A5
100
AcDbEntity
  8
Layer 1
 62
   250
370
    18
100
AcDbVertex
100
AcDb2dVertex
 10
8.741034613715277
 20
-7.395555284288194
 30
0.0
  0
SEQEND
  5
2A8
330
2A5
100
AcDbEntity
  8
Layer 1
370
    18
  0
ENDBLK
  5
29C
330
299
100
AcDbEntity
  8
0
100
AcDbBlockEnd
  0
BLOCK
  5
2B7
330
2B5
100
AcDbEntity
  8
0
100
AcDbBlockBegin
  2
block 12
 70
     0
 71
     0
 10
0.0
 20
0.0
 30
0.0
  3
block 12
  1

  0
POLYLINE
  5
2B9
330
2B5
100
AcDbEntity
  8
Layer 1
 62
   250
370
    18
100
AcDb2dPolyline
 66
     1
 10
0.0
 20
0.0
 30
0.0
  0
VERTEX
  5
2BA
330
2B9
100
AcDbEntity
  8
Layer 1
 62
   250
370
    18
100
AcDbVertex
100
AcDb2dVertex
 10
5.153069390190972
 20
-7.256666395399305
 30
0.0
  0
VERTEX
  5
2BB
330
2B9
100
AcDbEntity
  8
Layer 1
 62
   250
370
    18
100
AcDbVertex
100
AcDb2dVertex
 10
6.327006022135416
 20
-7.256666395399305
 30
0.0
  0
SEQEND
  5
2BC
330
2B9
100
AcDbEntity
  8
Layer 1
370
    18
  0
POLYLINE
  5
2BD
330
2B5
100
AcDbEntity
  8
Layer 1
 62
   250
370
    18
100
AcDb2dPolyline
 66
     1
 10
0.0
 20
0.0
 30
0.0
  0
VERTEX
  5
2BE
330
2BD
100
AcDbEntity
  8
Layer 1
 62
   250
370
    18
100
AcDbVertex
100
AcDb2dVertex
 10
6.452006022135416
 20
-7.256666395399305
 30
0.0
  0
VERTEX
  5
2BF
330
2BD
100
AcDbEntity
  8
Layer 1
 62
   250
370
    18
100
AcDbVertex
100
AcDb2dVertex
 10
7.452006022135416
 20
-7.256666395399305
 30
0.0
  0
SEQEND
  5
2C0
330
2BD
100
AcDbEntity
  8
Layer 1
370
    18
  0
POLYLINE
  5
2C1
330
2B5
100
AcDbEntity
  8
Layer 1
 62
   250
370
    18
100
AcDb2dPolyline
 66
     1
 10
0.0
 20
0.0
 30
0.0
  0
VERTEX
  5
2C2
330
2C1
100
AcDbEntity
  8
Layer 1
 62
   250
370
    18
100
AcDbVertex
100
AcDb2dVertex
 10
7.577006022135416
 20
-7.256666395399305
 30
0.0
  0
VERTEX
  5
2C3
330
2C1
100
AcDbEntity
  8
Layer 1
 62
   250
370
    18
100
AcDbVertex
100
AcDb2dVertex
 10
8.741034613715277
 20
-7.256666395399305
 30
0.0
  0
SEQEND
  5
2C4
330
2C1
100
AcDbEntity
  8
Layer 1
370
    18
  0
ENDBLK
  5
2B8
330
2B5
100
AcDbEntity
  8
0
100
AcDbBlockEnd
  0
BLOCK
  5
2D3
330
2D1
100
AcDbEntity
  8
0
100
AcDbBlockBegin
  2
block 13
 70
     0
 71
     0
 10
0.0
 20
0.0
 30
0.0
  3
block 13
  1

  0
POLYLINE
  5
2D5
330
2D1
100
AcDbEntity
  8
Layer 1
 62
   250
370
    18
100
AcDb2dPolyline
 66
     1
 10
0.0
 20
0.0
 30
0.0
  0
VERTEX
  5
2D6
330
2D5
100
AcDbEntity
  8
Layer 1
 62
   250
370
    18
100
AcDbVertex
100
AcDb2dVertex
 10
5.153069390190972
 20
-7.117777506510416
 30
0.0
  0
VERTEX
  5
2D7
330
2D5
100
AcDbEntity
  8
Layer 1
 62
   250
370
    18
100
AcDbVertex
100
AcDb2dVertex
 10
6.327006022135416
 20
-7.117777506510416
 30
0.0
  0
SEQEND
  5
2D8
330
2D5
100
AcDbEntity
  8
Layer 1
370
    18
  0
POLYLINE
  5
2D9
330
2D1
100
AcDbEntity
  8
Layer 1
 62
   250
370
    18
100
AcDb2dPolyline
 66
     1
 10
0.0
 20
0.0
 30
0.0
  0
VERTEX
  5
2DA
330
2D9
100
AcDbEntity
  8
Layer 1
 62
   250
370
    18
100
AcDbVertex
100
AcDb2dVertex
 10
6.452006022135416
 20
-7.117777506510416
 30
0.0
  0
VERTEX
  5
2DB
330
2D9
100
AcDbEntity
  8
Layer 1
 62
   250
370
    18
100
AcDbVertex
100
AcDb2dVertex
 10
7.452006022135416
 20
-7.117777506510416
 30
0.0
  0
SEQEND
  5
2DC
330
2D9
100
AcDbEntity
  8
Layer 1
370
    18
  0
POLYLINE
  5
2DD
330
2D1
100
AcDbEntity
  8
Layer 1
 62
   250
370
    18
100
AcDb2dPolyline
 66
     1
 10
0.0
 20
0.0
 30
0.0
  0
VERTEX
  5
2DE
330
2DD
100
AcDbEntity
  8
Layer 1
 62
   250
370
    18
100
AcDbVertex
100
AcDb2dVertex
 10
7.577006022135416
 20
-7.117777506510416
 30
0.0
  0
VERTEX
  5
2DF
330
2DD
100
AcDbEntity
  8
Layer 1
 62
   250
370
    18
100
AcDbVertex
100
AcDb2dVertex
 10
8.741034613715277
 20
-7.117777506510416
 30
0.0
  0
SEQEND
  5
2E0
330
2DD
100
AcDbEntity
  8
Layer 1
370
    18
  0
ENDBLK
  5
2D4
330
2D1
100
AcDbEntity
  8
0
100
AcDbBlockEnd
  0
BLOCK
  5
2EF
330
2ED
100
AcDbEntity
  8
0
100
AcDbBlockBegin
  2
block 14
 70
     0
 71
     0
 10
0.0
 20
0.0
 30
0.0
  3
block 14
  1

  0
POLYLINE
  5
2F1
330
2ED
100
AcDbEntity
  8
Layer 1
 62
   250
370
    18
100
AcDb2dPolyline
 66
     1
 10
0.0
 20
0.0
 30
0.0
  0
VERTEX
  5
2F2
330
2F1
100
AcDbEntity
  8
Layer 1
 62
   250
370
    18
100
AcDbVertex
100
AcDb2dVertex
 10
5.153069390190972
 20
-6.978888617621528
 30
0.0
  0
VERTEX
  5
2F3
330
2F1
100
AcDbEntity
  8
Layer 1
 62
   250
370
    18
100
AcDbVertex
100
AcDb2dVertex
 10
6.327006022135416
 20
-6.978888617621528
 30
0.0
  0
SEQEND
  5
2F4
330
2F1
100
AcDbEntity
  8
Layer 1
370
    18
  0
POLYLINE
  5
2F5
330
2ED
100
AcDbEntity
  8
Layer 1
 62
   250
370
    18
100
AcDb2dPolyline
 66
     1
 10
0.0
 20
0.0
 30
0.0
  0
VERTEX
  5
2F6
330
2F5
100
AcDbEntity
  8
Layer 1
 62
   250
370
    18
100
AcDbVertex
100
AcDb2dVertex
 10
6.452006022135416
 20
-6.978888617621528
 30
0.0
  0
VERTEX
  5
2F7
330
2F5
100
AcDbEntity
  8
Layer 1
 62
   250
370
    18
100
AcDbVertex
100
AcDb2dVertex
 10
7.452006022135416
 20
-6.978888617621528
 30
0.0
  0
SEQEND
  5
2F8
330
2F5
100
AcDbEntity
  8
Layer 1
370
    18
  0
POLYLINE
  5
2F9
330
2ED
100
AcDbEntity
  8
Layer 1
 62
   250
370
    18
100
AcDb2dPolyline
 66
     1
 10
0.0
 20
0.0
 30
0.0
  0
VERTEX
  5
2FA
330
2F9
100
AcDbEntity
  8
Layer 1
 62
   250
370
    18
100
AcDbVertex
100
AcDb2dVertex
 10
7.577006022135416
 20
-6.978888617621528
 30
0.0
  0
VERTEX
  5
2FB
330
2F9
100
AcDbEntity
  8
Layer 1
 62
   250
370
    18
100
AcDbVertex
100
AcDb2dVertex
 10
8.741034613715277
 20
-6.978888617621528
 30
0.0
  0
SEQEND
  5
2FC
330
2F9
100
AcDbEntity
  8
Layer 1
370
    18
  0
ENDBLK
  5
2F0
330
2ED
100
AcDbEntity
  8
0
100
AcDbBlockEnd
  0
BLOCK
  5
30B
330
309
100
AcDbEntity
  8
0
100
AcDbBlockBegin
  2
block 15
 70
     0
 71
     0
 10
0.0
 20
0.0
 30
0.0
  3
block 15
  1

  0
POLYLINE
  5
30D
330
309
100
AcDbEntity
  8
Layer 1
 62
   250
370
    18
100
AcDb2dPolyline
 66
     1
 10
0.0
 20
0.0
 30
0.0
  0
VERTEX
  5
30E
330
30D
100
AcDbEntity
  8
Layer 1
 62
   250
370
    18
100
AcDbVertex
100
AcDb2dVertex
 10
5.153069390190972
 20
-6.839999728732638
 30
0.0
  0
VERTEX
  5
30F
330
30D
100
AcDbEntity
  8
Layer 1
 62
   250
370
    18
100
AcDbVertex
100
AcDb2dVertex
 10
6.327006022135416
 20
-6.839999728732638
 30
0.0
  0
SEQEND
  5
310
330
30D
100
AcDbEntity
  8
Layer 1
370
    18
  0
POLYLINE
  5
311
330
309
100
AcDbEntity
  8
Layer 1
 62
   250
370
    18
100
AcDb2dPolyline
 66
     1
 10
0.0
 20
0.0
 30
0.0
  0
VERTEX
  5
312
330
311
100
AcDbEntity
  8
Layer 1
 62
   250
370
    18
100
AcDbVertex
100
AcDb2dVertex
 10
6.452006022135416
 20
-6.839999728732638
 30
0.0
  0
VERTEX
  5
313
330
311
100
AcDbEntity
  8
Layer 1
 62
   250
370
    18
100
AcDbVertex
100
AcDb2dVertex
 10
7.452006022135416
 20
-6.839999728732638
 30
0.0
  0
SEQEND
  5
314
330
311
100
AcDbEntity
  8
Layer 1
370
    18
  0
POLYLINE
  5
315
330
309
100
AcDbEntity
  8
Layer 1
 62
   250
370
    18
100
AcDb2dPolyline
 66
     1
 10
0.0
 20
0.0
 30
0.0
  0
VERTEX
  5
316
330
315
100
AcDbEntity
  8
Layer 1
 62
   250
370
    18
100
AcDbVertex
100
AcDb2dVertex
 10
7.577006022135416
 20
-6.839999728732638
 30
0.0
  0
VERTEX
  5
317
330
315
100
AcDbEntity
  8
Layer 1
 62
   250
370
    18
100
AcDbVertex
100
AcDb2dVertex
 10
8.741034613715277
 20
-6.839999728732638
 30
0.0
  0
SEQEND
  5
318
330
315
100
AcDbEntity
  8
Layer 1
370
    18
  0
ENDBLK
  5
30C
330
309
100
AcDbEntity
  8
0
100
AcDbBlockEnd
  0
BLOCK
  5
327
330
325
100
AcDbEntity
  8
0
100
AcDbBlockBegin
  2
block 16
 70
     0
 71
     0
 10
0.0
 20
0.0
 30
0.0
  3
block 16
  1

  0
POLYLINE
  5
329
330
325
100
AcDbEntity
  8
Layer 1
 62
   250
370
    18
100
AcDb2dPolyline
 66
     1
 10
0.0
 20
0.0
 30
0.0
  0
VERTEX
  5
32A
330
329
100
AcDbEntity
  8
Layer 1
 62
   250
370
    18
100
AcDbVertex
100
AcDb2dVertex
 10
5.153069390190972
 20
-6.70111083984375
 30
0.0
  0
VERTEX
  5
32B
330
329
100
AcDbEntity
  8
Layer 1
 62
   250
370
    18
100
AcDbVertex
100
AcDb2dVertex
 10
6.327006022135416
 20
-6.70111083984375
 30
0.0
  0
SEQEND
  5
32C
330
329
100
AcDbEntity
  8
Layer 1
370
    18
  0
POLYLINE
  5
32D
330
325
100
AcDbEntity
  8
Layer 1
 62
   250
370
    18
100
AcDb2dPolyline
 66
     1
 10
0.0
 20
0.0
 30
0.0
  0
VERTEX
  5
32E
330
32D
100
AcDbEntity
  8
Layer 1
 62
   250
370
    18
100
AcDbVertex
100
AcDb2dVertex
 10
6.452006022135416
 20
-6.70111083984375
 30
0.0
  0
VERTEX
  5
32F
330
32D
100
AcDbEntity
  8
Layer 1
 62
   250
370
    18
100
AcDbVertex
100
AcDb2dVertex
 10
7.452006022135416
 20
-6.70111083984375
 30
0.0
  0
SEQEND
  5
330
330
32D
100
AcDbEntity
  8
Layer 1
370
    18
  0
POLYLINE
  5
331
330
325
100
AcDbEntity
  8
Layer 1
 62
   250
370
    18
100
AcDb2dPolyline
 66
     1
 10
0.0
 20
0.0
 30
0.0
  0
VERTEX
  5
332
330
331
100
AcDbEntity
  8
Layer 1
 62
   250
370
    18
100
AcDbVertex
100
AcDb2dVertex
 10
7.577006022135416
 20
-6.70111083984375
 30
0.0
  0
VERTEX
  5
333
330
331
100
AcDbEntity
  8
Layer 1
 62
   250
370
    18
100
AcDbVertex
100
AcDb2dVertex
 10
8.741034613715277
 20
-6.70111083984375
 30
0.0
  0
SEQEND
  5
334
330
331
100
AcDbEntity
  8
Layer 1
370
    18
  0
ENDBLK
  5
328
330
325
100
AcDbEntity
  8
0
100
AcDbBlockEnd
  0
BLOCK
  5
343
330
341
100
AcDbEntity
  8
0
100
AcDbBlockBegin
  2
block 17
 70
     0
 71
     0
 10
0.0
 20
0.0
 30
0.0
  3
block 17
  1

  0
POLYLINE
  5
345
330
341
100
AcDbEntity
  8
Layer 1
 62
   250
370
    18
100
AcDb2dPolyline
 66
     1
 10
0.0
 20
0.0
 30
0.0
  0
VERTEX
  5
346
330
345
100
AcDbEntity
  8
Layer 1
 62
   250
370
    18
100
AcDbVertex
100
AcDb2dVertex
 10
5.153069390190972
 20
-6.562221950954861
 30
0.0
  0
VERTEX
  5
347
330
345
100
AcDbEntity
  8
Layer 1
 62
   250
370
    18
100
AcDbVertex
100
AcDb2dVertex
 10
6.327006022135416
 20
-6.562221950954861
 30
0.0
  0
SEQEND
  5
348
330
345
100
AcDbEntity
  8
Layer 1
370
    18
  0
POLYLINE
  5
349
330
341
100
AcDbEntity
  8
Layer 1
 62
   250
370
    18
100
AcDb2dPolyline
 66
     1
 10
0.0
 20
0.0
 30
0.0
  0
VERTEX
  5
34A
330
349
100
AcDbEntity
  8
Layer 1
 62
   250
370
    18
100
AcDbVertex
100
AcDb2dVertex
 10
6.452006022135416
 20
-6.562221950954861
 30
0.0
  0
VERTEX
  5
34B
330
349
100
AcDbEntity
  8
Layer 1
 62
   250
370
    18
100
AcDbVertex
100
AcDb2dVertex
 10
7.452006022135416
 20
-6.562221950954861
 30
0.0
  0
SEQEND
  5
34C
330
349
100
AcDbEntity
  8
Layer 1
370
    18
  0
POLYLINE
  5
34D
330
341
100
AcDbEntity
  8
Layer 1
 62
   250
370
    18
100
AcDb2dPolyline
 66
     1
 10
0.0
 20
0.0
 30
0.0
  0
VERTEX
  5
34E
330
34D
100
AcDbEntity
  8
Layer 1
 62
   250
370
    18
100
AcDbVertex
100
AcDb2dVertex
 10
7.577006022135416
 20
-6.562221950954861
 30
0.0
  0
VERTEX
  5
34F
330
34D
100
AcDbEntity
  8
Layer 1
 62
   250
370
    18
100
AcDbVertex
100
AcDb2dVertex
 10
8.741034613715277
 20
-6.562221950954861
 30
0.0
  0
SEQEND
  5
350
330
34D
100
AcDbEntity
  8
Layer 1
370
    18
  0
ENDBLK
  5
344
330
341
100
AcDbEntity
  8
0
100
AcDbBlockEnd
  0
BLOCK
  5
35F
330
35D
100
AcDbEntity
  8
0
100
AcDbBlockBegin
  2
block 18
 70
     0
 71
     0
 10
0.0
 20
0.0
 30
0.0
  3
block 18
  1

  0
POLYLINE
  5
361
330
35D
100
AcDbEntity
  8
Layer 1
 62
   250
370
    18
100
AcDb2dPolyline
 66
     1
 10
0.0
 20
0.0
 30
0.0
  0
VERTEX
  5
362
330
361
100
AcDbEntity
  8
Layer 1
 62
   250
370
    18
100
AcDbVertex
100
AcDb2dVertex
 10
5.153069390190972
 20
-6.423333062065971
 30
0.0
  0
VERTEX
  5
363
330
361
100
AcDbEntity
  8
Layer 1
 62
   250
370
    18
100
AcDbVertex
100
AcDb2dVertex
 10
6.327006022135416
 20
-6.423333062065971
 30
0.0
  0
SEQEND
  5
364
330
361
100
AcDbEntity
  8
Layer 1
370
    18
  0
POLYLINE
  5
365
330
35D
100
AcDbEntity
  8
Layer 1
 62
   250
370
    18
100
AcDb2dPolyline
 66
     1
 10
0.0
 20
0.0
 30
0.0
  0
VERTEX
  5
366
330
365
100
AcDbEntity
  8
Layer 1
 62
   250
370
    18
100
AcDbVertex
100
AcDb2dVertex
 10
6.452006022135416
 20
-6.423333062065971
 30
0.0
  0
VERTEX
  5
367
330
365
100
AcDbEntity
  8
Layer 1
 62
   250
370
    18
100
AcDbVertex
100
AcDb2dVertex
 10
7.452006022135416
 20
-6.423333062065971
 30
0.0
  0
SEQEND
  5
368
330
365
100
AcDbEntity
  8
Layer 1
370
    18
  0
POLYLINE
  5
369
330
35D
100
AcDbEntity
  8
Layer 1
 62
   250
370
    18
100
AcDb2dPolyline
 66
     1
 10
0.0
 20
0.0
 30
0.0
  0
VERTEX
  5
36A
330
369
100
AcDbEntity
  8
Layer 1
 62
   250
370
    18
100
AcDbVertex
100
AcDb2dVertex
 10
7.577006022135416
 20
-6.423333062065971
 30
0.0
  0
VERTEX
  5
36B
330
369
100
AcDbEntity
  8
Layer 1
 62
   250
370
    18
100
AcDbVertex
100
AcDb2dVertex
 10
8.741034613715277
 20
-6.423333062065971
 30
0.0
  0
SEQEND
  5
36C
330
369
100
AcDbEntity
  8
Layer 1
370
    18
  0
ENDBLK
  5
360
330
35D
100
AcDbEntity
  8
0
100
AcDbBlockEnd
  0
BLOCK
  5
37B
330
379
100
AcDbEntity
  8
0
100
AcDbBlockBegin
  2
block 19
 70
     0
 71
     0
 10
0.0
 20
0.0
 30
0.0
  3
block 19
  1

  0
POLYLINE
  5
37D
330
379
100
AcDbEntity
  8
Layer 1
 62
   250
370
    18
100
AcDb2dPolyline
 66
     1
 10
0.0
 20
0.0
 30
0.0
  0
VERTEX
  5
37E
330
37D
100
AcDbEntity
  8
Layer 1
 62
   250
370
    18
100
AcDbVertex
100
AcDb2dVertex
 10
5.153069390190972
 20
-6.284444173177083
 30
0.0
  0
VERTEX
  5
37F
330
37D
100
AcDbEntity
  8
Layer 1
 62
   250
370
    18
100
AcDbVertex
100
AcDb2dVertex
 10
6.327006022135416
 20
-6.284444173177083
 30
0.0
  0
SEQEND
  5
380
330
37D
100
AcDbEntity
  8
Layer 1
370
    18
  0
POLYLINE
  5
381
330
379
100
AcDbEntity
  8
Layer 1
 62
   250
370
    18
100
AcDb2dPolyline
 66
     1
 10
0.0
 20
0.0
 30
0.0
  0
VERTEX
  5
382
330
381
100
AcDbEntity
  8
Layer 1
 62
   250
370
    18
100
AcDbVertex
100
AcDb2dVertex
 10
6.452006022135416
 20
-6.284444173177083
 30
0.0
  0
VERTEX
  5
383
330
381
100
AcDbEntity
  8
Layer 1
 62
   250
370
    18
100
AcDbVertex
100
AcDb2dVertex
 10
7.452006022135416
 20
-6.284444173177083
 30
0.0
  0
SEQEND
  5
384
330
381
100
AcDbEntity
  8
Layer 1
370
    18
  0
POLYLINE
  5
385
330
379
100
AcDbEntity
  8
Layer 1
 62
   250
370
    18
100
AcDb2dPolyline
 66
     1
 10
0.0
 20
0.0
 30
0.0
  0
VERTEX
  5
386
330
385
100
AcDbEntity
  8
Layer 1
 62
   250
370
    18
100
AcDbVertex
100
AcDb2dVertex
 10
7.577006022135416
 20
-6.284444173177083
 30
0.0
  0
VERTEX
  5
387
330
385
100
AcDbEntity
  8
Layer 1
 62
   250
370
    18
100
AcDbVertex
100
AcDb2dVertex
 10
8.741034613715277
 20
-6.284444173177083
 30
0.0
  0
SEQEND
  5
388
330
385
100
AcDbEntity
  8
Layer 1
370
    18
  0
ENDBLK
  5
37C
330
379
100
AcDbEntity
  8
0
100
AcDbBlockEnd
  0
BLOCK
  5
397
330
395
100
AcDbEntity
  8
0
100
AcDbBlockBegin
  2
block 20
 70
     0
 71
     0
 10
0.0
 20
0.0
 30
0.0
  3
block 20
  1

  0
POLYLINE
  5
399
330
395
100
AcDbEntity
  8
Layer 1
 62
   250
370
    18
100
AcDb2dPolyline
 66
     1
 10
0.0
 20
0.0
 30
0.0
  0
VERTEX
  5
39A
330
399
100
AcDbEntity
  8
Layer 1
 62
   250
370
    18
100
AcDbVertex
100
AcDb2dVertex
 10
5.153069390190972
 20
-6.145555284288194
 30
0.0
  0
VERTEX
  5
39B
330
399
100
AcDbEntity
  8
Layer 1
 62
   250
370
    18
100
AcDbVertex
100
AcDb2dVertex
 10
6.327006022135416
 20
-6.145555284288194
 30
0.0
  0
SEQEND
  5
39C
330
399
100
AcDbEntity
  8
Layer 1
370
    18
  0
POLYLINE
  5
39D
330
395
100
AcDbEntity
  8
Layer 1
 62
   250
370
    18
100
AcDb2dPolyline
 66
     1
 10
0.0
 20
0.0
 30
0.0
  0
VERTEX
  5
39E
330
39D
100
AcDbEntity
  8
Layer 1
 62
   250
370
    18
100
AcDbVertex
100
AcDb2dVertex
 10
6.452006022135416
 20
-6.145555284288194
 30
0.0
  0
VERTEX
  5
39F
330
39D
100
AcDbEntity
  8
Layer 1
 62
   250
370
    18
100
AcDbVertex
100
AcDb2dVertex
 10
7.452006022135416
 20
-6.145555284288194
 30
0.0
  0
SEQEND
  5
3A0
330
39D
100
AcDbEntity
  8
Layer 1
370
    18
  0
POLYLINE
  5
3A1
330
395
100
AcDbEntity
  8
Layer 1
 62
   250
370
    18
100
AcDb2dPolyline
 66
     1
 10
0.0
 20
0.0
 30
0.0
  0
VERTEX
  5
3A2
330
3A1
100
AcDbEntity
  8
Layer 1
 62
   250
370
    18
100
AcDbVertex
100
AcDb2dVertex
 10
7.577006022135416
 20
-6.145555284288194
 30
0.0
  0
VERTEX
  5
3A3
330
3A1
100
AcDbEntity
  8
Layer 1
 62
   250
370
    18
100
AcDbVertex
100
AcDb2dVertex
 10
8.741034613715277
 20
-6.145555284288194
 30
0.0
  0
SEQEND
  5
3A4
330
3A1
100
AcDbEntity
  8
Layer 1
370
    18
  0
ENDBLK
  5
398
330
395
100
AcDbEntity
  8
0
100
AcDbBlockEnd
  0
BLOCK
  5
3B3
330
3B1
100
AcDbEntity
  8
0
100
AcDbBlockBegin
  2
block 21
 70
     0
 71
     0
 10
0.0
 20
0.0
 30
0.0
  3
block 21
  1

  0
POLYLINE
  5
3B5
330
3B1
100
AcDbEntity
  8
Layer 1
 62
   250
370
    18
100
AcDb2dPolyline
 66
     1
 10
0.0
 20
0.0
 30
0.0
  0
VERTEX
  5
3B6
330
3B5
100
AcDbEntity
  8
Layer 1
 62
   250
370
    18
100
AcDbVertex
100
AcDb2dVertex
 10
5.153069390190972
 20
-6.006666395399305
 30
0.0
  0
VERTEX
  5
3B7
330
3B5
100
AcDbEntity
  8
Layer 1
 62
   250
370
    18
100
AcDbVertex
100
AcDb2dVertex
 10
6.327006022135416
 20
-6.006666395399305
 30
0.0
  0
SEQEND
  5
3B8
330
3B5
100
AcDbEntity
  8
Layer 1
370
    18
  0
POLYLINE
  5
3B9
330
3B1
100
AcDbEntity
  8
Layer 1
 62
   250
370
    18
100
AcDb2dPolyline
 66
     1
 10
0.0
 20
0.0
 30
0.0
  0
VERTEX
  5
3BA
330
3B9
100
AcDbEntity
  8
Layer 1
 62
   250
370
    18
100
AcDbVertex
100
AcDb2dVertex
 10
6.452006022135416
 20
-6.006666395399305
 30
0.0
  0
VERTEX
  5
3BB
330
3B9
100
AcDbEntity
  8
Layer 1
 62
   250
370
    18
100
AcDbVertex
100
AcDb2dVertex
 10
7.452006022135416
 20
-6.006666395399305
 30
0.0
  0
SEQEND
  5
3BC
330
3B9
100
AcDbEntity
  8
Layer 1
370
    18
  0
POLYLINE
  5
3BD
330
3B1
100
AcDbEntity
  8
Layer 1
 62
   250
370
    18
100
AcDb2dPolyline
 66
     1
 10
0.0
 20
0.0
 30
0.0
  0
VERTEX
  5
3BE
330
3BD
100
AcDbEntity
  8
Layer 1
 62
   250
370
    18
100
AcDbVertex
100
AcDb2dVertex
 10
7.577006022135416
 20
-6.006666395399305
 30
0.0
  0
VERTEX
  5
3BF
330
3BD
100
AcDbEntity
  8
Layer 1
 62
   250
370
    18
100
AcDbVertex
100
AcDb2dVertex
 10
8.741034613715277
 20
-6.006666395399305
 30
0.0
  0
SEQEND
  5
3C0
330
3BD
100
AcDbEntity
  8
Layer 1
370
    18
  0
ENDBLK
  5
3B4
330
3B1
100
AcDbEntity
  8
0
100
AcDbBlockEnd
  0
BLOCK
  5
3CF
330
3CD
100
AcDbEntity
  8
0
100
AcDbBlockBegin
  2
block 22
 70
     0
 71
     0
 10
0.0
 20
0.0
 30
0.0
  3
block 22
  1

  0
POLYLINE
  5
3D1
330
3CD
100
AcDbEntity
  8
Layer 1
 62
   250
370
    18
100
AcDb2dPolyline
 66
     1
 10
0.0
 20
0.0
 30
0.0
  0
VERTEX
  5
3D2
330
3D1
100
AcDbEntity
  8
Layer 1
 62
   250
370
    18
100
AcDbVertex
100
AcDb2dVertex
 10
5.153069390190972
 20
-5.867777506510416
 30
0.0
  0
VERTEX
  5
3D3
330
3D1
100
AcDbEntity
  8
Layer 1
 62
   250
370
    18
100
AcDbVertex
100
AcDb2dVertex
 10
6.327006022135416
 20
-5.867777506510416
 30
0.0
  0
SEQEND
  5
3D4
330
3D1
100
AcDbEntity
  8
Layer 1
370
    18
  0
POLYLINE
  5
3D5
330
3CD
100
AcDbEntity
  8
Layer 1
 62
   250
370
    18
100
AcDb2dPolyline
 66
     1
 10
0.0
 20
0.0
 30
0.0
  0
VERTEX
  5
3D6
330
3D5
100
AcDbEntity
  8
Layer 1
 62
   250
370
    18
100
AcDbVertex
100
AcDb2dVertex
 10
6.452006022135416
 20
-5.867777506510416
 30
0.0
  0
VERTEX
  5
3D7
330
3D5
100
AcDbEntity
  8
Layer 1
 62
   250
370
    18
100
AcDbVertex
100
AcDb2dVertex
 10
7.452006022135416
 20
-5.867777506510416
 30
0.0
  0
SEQEND
  5
3D8
330
3D5
100
AcDbEntity
  8
Layer 1
370
    18
  0
POLYLINE
  5
3D9
330
3CD
100
AcDbEntity
  8
Layer 1
 62
   250
370
    18
100
AcDb2dPolyline
 66
     1
 10
0.0
 20
0.0
 30
0.0
  0
VERTEX
  5
3DA
330
3D9
100
AcDbEntity
  8
Layer 1
 62
   250
370
    18
100
AcDbVertex
100
AcDb2dVertex
 10
7.577006022135416
 20
-5.867777506510416
 30
0.0
  0
VERTEX
  5
3DB
330
3D9
100
AcDbEntity
  8
Layer 1
 62
   250
370
    18
100
AcDbVertex
100
AcDb2dVertex
 10
8.741034613715277
 20
-5.867777506510416
 30
0.0
  0
SEQEND
  5
3DC
330
3D9
100
AcDbEntity
  8
Layer 1
370
    18
  0
ENDBLK
  5
3D0
330
3CD
100
AcDbEntity
  8
0
100
AcDbBlockEnd
  0
BLOCK
  5
3EB
330
3E9
100
AcDbEntity
  8
0
100
AcDbBlockBegin
  2
block 23
 70
     0
 71
     0
 10
0.0
 20
0.0
 30
0.0
  3
block 23
  1

  0
POLYLINE
  5
3ED
330
3E9
100
AcDbEntity
  8
Layer 1
 62
   250
370
    18
100
AcDb2dPolyline
 66
     1
 10
0.0
 20
0.0
 30
0.0
  0
VERTEX
  5
3EE
330
3ED
100
AcDbEntity
  8
Layer 1
 62
   250
370
    18
100
AcDbVertex
100
AcDb2dVertex
 10
5.153069390190972
 20
-5.728888617621528
 30
0.0
  0
VERTEX
  5
3EF
330
3ED
100
AcDbEntity
  8
Layer 1
 62
   250
370
    18
100
AcDbVertex
100
AcDb2dVertex
 10
6.327006022135416
 20
-5.728888617621528
 30
0.0
  0
SEQEND
  5
3F0
330
3ED
100
AcDbEntity
  8
Layer 1
370
    18
  0
POLYLINE
  5
3F1
330
3E9
100
AcDbEntity
  8
Layer 1
 62
   250
370
    18
100
AcDb2dPolyline
 66
     1
 10
0.0
 20
0.0
 30
0.0
  0
VERTEX
  5
3F2
330
3F1
100
AcDbEntity
  8
Layer 1
 62
   250
370
    18
100
AcDbVertex
100
AcDb2dVertex
 10
6.452006022135416
 20
-5.728888617621528
 30
0.0
  0
VERTEX
  5
3F3
330
3F1
100
AcDbEntity
  8
Layer 1
 62
   250
370
    18
100
AcDbVertex
100
AcDb2dVertex
 10
7.452006022135416
 20
-5.728888617621528
 30
0.0
  0
SEQEND
  5
3F4
330
3F1
100
AcDbEntity
  8
Layer 1
370
    18
  0
POLYLINE
  5
3F5
330
3E9
100
AcDbEntity
  8
Layer 1
 62
   250
370
    18
100
AcDb2dPolyline
 66
     1
 10
0.0
 20
0.0
 30
0.0
  0
VERTEX
  5
3F6
330
3F5
100
AcDbEntity
  8
Layer 1
 62
   250
370
    18
100
AcDbVertex
100
AcDb2dVertex
 10
7.577006022135416
 20
-5.728888617621528
 30
0.0
  0
VERTEX
  5
3F7
330
3F5
100
AcDbEntity
  8
Layer 1
 62
   250
370
    18
100
AcDbVertex
100
AcDb2dVertex
 10
8.741034613715277
 20
-5.728888617621528
 30
0.0
  0
SEQEND
  5
3F8
330
3F5
100
AcDbEntity
  8
Layer 1
370
    18
  0
ENDBLK
  5
3EC
330
3E9
100
AcDbEntity
  8
0
100
AcDbBlockEnd
  0
BLOCK
  5
407
330
405
100
AcDbEntity
  8
0
100
AcDbBlockBegin
  2
block 24
 70
     0
 71
     0
 10
0.0
 20
0.0
 30
0.0
  3
block 24
  1

  0
POLYLINE
  5
409
330
405
100
AcDbEntity
  8
Layer 1
 62
   250
370
    18
100
AcDb2dPolyline
 66
     1
 10
0.0
 20
0.0
 30
0.0
  0
VERTEX
  5
40A
330
409
100
AcDbEntity
  8
Layer 1
 62
   250
370
    18
100
AcDbVertex
100
AcDb2dVertex
 10
5.153069390190972
 20
-5.589999728732638
 30
0.0
  0
VERTEX
  5
40B
330
409
100
AcDbEntity
  8
Layer 1
 62
   250
370
    18
100
AcDbVertex
100
AcDb2dVertex
 10
6.327006022135416
 20
-5.589999728732638
 30
0.0
  0
SEQEND
  5
40C
330
409
100
AcDbEntity
  8
Layer 1
370
    18
  0
POLYLINE
  5
40D
330
405
100
AcDbEntity
  8
Layer 1
 62
   250
370
    18
100
AcDb2dPolyline
 66
     1
 10
0.0
 20
0.0
 30
0.0
  0
VERTEX
  5
40E
330
40D
100
AcDbEntity
  8
Layer 1
 62
   250
370
    18
100
AcDbVertex
100
AcDb2dVertex
 10
6.452006022135416
 20
-5.589999728732638
 30
0.0
  0
VERTEX
  5
40F
330
40D
100
AcDbEntity
  8
Layer 1
 62
   250
370
    18
100
AcDbVertex
100
AcDb2dVertex
 10
7.452006022135416
 20
-5.589999728732638
 30
0.0
  0
SEQEND
  5
410
330
40D
100
AcDbEntity
  8
Layer 1
370
    18
  0
POLYLINE
  5
411
330
405
100
AcDbEntity
  8
Layer 1
 62
   250
370
    18
100
AcDb2dPolyline
 66
     1
 10
0.0
 20
0.0
 30
0.0
  0
VERTEX
  5
412
330
411
100
AcDbEntity
  8
Layer 1
 62
   250
370
    18
100
AcDbVertex
100
AcDb2dVertex
 10
7.577006022135416
 20
-5.589999728732638
 30
0.0
  0
VERTEX
  5
413
330
411
100
AcDbEntity
  8
Layer 1
 62
   250
370
    18
100
AcDbVertex
100
AcDb2dVertex
 10
8.741034613715277
 20
-5.589999728732638
 30
0.0
  0
SEQEND
  5
414
330
411
100
AcDbEntity
  8
Layer 1
370
    18
  0
ENDBLK
  5
408
330
405
100
AcDbEntity
  8
0
100
AcDbBlockEnd
  0
BLOCK
  5
423
330
421
100
AcDbEntity
  8
0
100
AcDbBlockBegin
  2
block 25
 70
     0
 71
     0
 10
0.0
 20
0.0
 30
0.0
  3
block 25
  1

  0
POLYLINE
  5
425
330
421
100
AcDbEntity
  8
Layer 1
 62
   250
370
    18
100
AcDb2dPolyline
 66
     1
 10
0.0
 20
0.0
 30
0.0
  0
VERTEX
  5
426
330
425
100
AcDbEntity
  8
Layer 1
 62
   250
370
    18
100
AcDbVertex
100
AcDb2dVertex
 10
5.153069390190972
 20
-5.45111083984375
 30
0.0
  0
VERTEX
  5
427
330
425
100
AcDbEntity
  8
Layer 1
 62
   250
370
    18
100
AcDbVertex
100
AcDb2dVertex
 10
6.327006022135416
 20
-5.45111083984375
 30
0.0
  0
SEQEND
  5
428
330
425
100
AcDbEntity
  8
Layer 1
370
    18
  0
POLYLINE
  5
429
330
421
100
AcDbEntity
  8
Layer 1
 62
   250
370
    18
100
AcDb2dPolyline
 66
     1
 10
0.0
 20
0.0
 30
0.0
  0
VERTEX
  5
42A
330
429
100
AcDbEntity
  8
Layer 1
 62
   250
370
    18
100
AcDbVertex
100
AcDb2dVertex
 10
6.452006022135416
 20
-5.45111083984375
 30
0.0
  0
VERTEX
  5
42B
330
429
100
AcDbEntity
  8
Layer 1
 62
   250
370
    18
100
AcDbVertex
100
AcDb2dVertex
 10
7.452006022135416
 20
-5.45111083984375
 30
0.0
  0
SEQEND
  5
42C
330
429
100
AcDbEntity
  8
Layer 1
370
    18
  0
POLYLINE
  5
42D
330
421
100
AcDbEntity
  8
Layer 1
 62
   250
370
    18
100
AcDb2dPolyline
 66
     1
 10
0.0
 20
0.0
 30
0.0
  0
VERTEX
  5
42E
330
42D
100
AcDbEntity
  8
Layer 1
 62
   250
370
    18
100
AcDbVertex
100
AcDb2dVertex
 10
7.577006022135416
 20
-5.45111083984375
 30
0.0
  0
VERTEX
  5
42F
330
42D
100
AcDbEntity
  8
Layer 1
 62
   250
370
    18
100
AcDbVertex
100
AcDb2dVertex
 10
8.741034613715277
 20
-5.45111083984375
 30
0.0
  0
SEQEND
  5
430
330
42D
100
AcDbEntity
  8
Layer 1
370
    18
  0
ENDBLK
  5
424
330
421
100
AcDbEntity
  8
0
100
AcDbBlockEnd
  0
BLOCK
  5
43F
330
43D
100
AcDbEntity
  8
0
100
AcDbBlockBegin
  2
block 26
 70
     0
 71
     0
 10
0.0
 20
0.0
 30
0.0
  3
block 26
  1

  0
POLYLINE
  5
441
330
43D
100
AcDbEntity
  8
Layer 1
 62
   250
370
    18
100
AcDb2dPolyline
 66
     1
 10
0.0
 20
0.0
 30
0.0
  0
VERTEX
  5
442
330
441
100
AcDbEntity
  8
Layer 1
 62
   250
370
    18
100
AcDbVertex
100
AcDb2dVertex
 10
5.153069390190972
 20
-5.312221950954861
 30
0.0
  0
VERTEX
  5
443
330
441
100
AcDbEntity
  8
Layer 1
 62
   250
370
    18
100
AcDbVertex
100
AcDb2dVertex
 10
6.327006022135416
 20
-5.312221950954861
 30
0.0
  0
SEQEND
  5
444
330
441
100
AcDbEntity
  8
Layer 1
370
    18
  0
POLYLINE
  5
445
330
43D
100
AcDbEntity
  8
Layer 1
 62
   250
370
    18
100
AcDb2dPolyline
 66
     1
 10
0.0
 20
0.0
 30
0.0
  0
VERTEX
  5
446
330
445
100
AcDbEntity
  8
Layer 1
 62
   250
370
    18
100
AcDbVertex
100
AcDb2dVertex
 10
6.452006022135416
 20
-5.312221950954861
 30
0.0
  0
VERTEX
  5
447
330
445
100
AcDbEntity
  8
Layer 1
 62
   250
370
    18
100
AcDbVertex
100
AcDb2dVertex
 10
7.452006022135416
 20
-5.312221950954861
 30
0.0
  0
SEQEND
  5
448
330
445
100
AcDbEntity
  8
Layer 1
370
    18
  0
POLYLINE
  5
449
330
43D
100
AcDbEntity
  8
Layer 1
 62
   250
370
    18
100
AcDb2dPolyline
 66
     1
 10
0.0
 20
0.0
 30
0.0
  0
VERTEX
  5
44A
330
449
100
AcDbEntity
  8
Layer 1
 62
   250
370
    18
100
AcDbVertex
100
AcDb2dVertex
 10
7.577006022135416
 20
-5.312221950954861
 30
0.0
  0
VERTEX
  5
44B
330
449
100
AcDbEntity
  8
Layer 1
 62
   250
370
    18
100
AcDbVertex
100
AcDb2dVertex
 10
8.741034613715277
 20
-5.312221950954861
 30
0.0
  0
SEQEND
  5
44C
330
449
100
AcDbEntity
  8
Layer 1
370
    18
  0
ENDBLK
  5
440
330
43D
100
AcDbEntity
  8
0
100
AcDbBlockEnd
  0
BLOCK
  5
45B
330
459
100
AcDbEntity
  8
0
100
AcDbBlockBegin
  2
block 27
 70
     0
 71
     0
 10
0.0
 20
0.0
 30
0.0
  3
block 27
  1

  0
POLYLINE
  5
45D
330
459
100
AcDbEntity
  8
Layer 1
 62
   250
370
    18
100
AcDb2dPolyline
 66
     1
 10
0.0
 20
0.0
 30
0.0
  0
VERTEX
  5
45E
330
45D
100
AcDbEntity
  8
Layer 1
 62
   250
370
    18
100
AcDbVertex
100
AcDb2dVertex
 10
5.153069390190972
 20
-5.173333062065972
 30
0.0
  0
VERTEX
  5
45F
330
45D
100
AcDbEntity
  8
Layer 1
 62
   250
370
    18
100
AcDbVertex
100
AcDb2dVertex
 10
6.327006022135416
 20
-5.173333062065972
 30
0.0
  0
SEQEND
  5
460
330
45D
100
AcDbEntity
  8
Layer 1
370
    18
  0
POLYLINE
  5
461
330
459
100
AcDbEntity
  8
Layer 1
 62
   250
370
    18
100
AcDb2dPolyline
 66
     1
 10
0.0
 20
0.0
 30
0.0
  0
VERTEX
  5
462
330
461
100
AcDbEntity
  8
Layer 1
 62
   250
370
    18
100
AcDbVertex
100
AcDb2dVertex
 10
6.452006022135416
 20
-5.173333062065972
 30
0.0
  0
VERTEX
  5
463
330
461
100
AcDbEntity
  8
Layer 1
 62
   250
370
    18
100
AcDbVertex
100
AcDb2dVertex
 10
7.452006022135416
 20
-5.173333062065972
 30
0.0
  0
SEQEND
  5
464
330
461
100
AcDbEntity
  8
Layer 1
370
    18
  0
POLYLINE
  5
465
330
459
100
AcDbEntity
  8
Layer 1
 62
   250
370
    18
100
AcDb2dPolyline
 66
     1
 10
0.0
 20
0.0
 30
0.0
  0
VERTEX
  5
466
330
465
100
AcDbEntity
  8
Layer 1
 62
   250
370
    18
100
AcDbVertex
100
AcDb2dVertex
 10
7.577006022135416
 20
-5.173333062065972
 30
0.0
  0
VERTEX
  5
467
330
465
100
AcDbEntity
  8
Layer 1
 62
   250
370
    18
100
AcDbVertex
100
AcDb2dVertex
 10
8.741034613715277
 20
-5.173333062065972
 30
0.0
  0
SEQEND
  5
468
330
465
100
AcDbEntity
  8
Layer 1
370
    18
  0
ENDBLK
  5
45C
330
459
100
AcDbEntity
  8
0
100
AcDbBlockEnd
  0
BLOCK
  5
477
330
475
100
AcDbEntity
  8
0
100
AcDbBlockBegin
  2
block 28
 70
     0
 71
     0
 10
0.0
 20
0.0
 30
0.0
  3
block 28
  1

  0
POLYLINE
  5
479
330
475
100
AcDbEntity
  8
Layer 1
 62
   250
370
    18
100
AcDb2dPolyline
 66
     1
 10
0.0
 20
0.0
 30
0.0
  0
VERTEX
  5
47A
330
479
100
AcDbEntity
  8
Layer 1
 62
   250
370
    18
100
AcDbVertex
100
AcDb2dVertex
 10
5.153069390190972
 20
-5.034444173177083
 30
0.0
  0
VERTEX
  5
47B
330
479
100
AcDbEntity
  8
Layer 1
 62
   250
370
    18
100
AcDbVertex
100
AcDb2dVertex
 10
6.327006022135416
 20
-5.034444173177083
 30
0.0
  0
SEQEND
  5
47C
330
479
100
AcDbEntity
  8
Layer 1
370
    18
  0
POLYLINE
  5
47D
330
475
100
AcDbEntity
  8
Layer 1
 62
   250
370
    18
100
AcDb2dPolyline
 66
     1
 10
0.0
 20
0.0
 30
0.0
  0
VERTEX
  5
47E
330
47D
100
AcDbEntity
  8
Layer 1
 62
   250
370
    18
100
AcDbVertex
100
AcDb2dVertex
 10
6.452006022135416
 20
-5.034444173177083
 30
0.0
  0
VERTEX
  5
47F
330
47D
100
AcDbEntity
  8
Layer 1
 62
   250
370
    18
100
AcDbVertex
100
AcDb2dVertex
 10
7.452006022135416
 20
-5.034444173177083
 30
0.0
  0
SEQEND
  5
480
330
47D
100
AcDbEntity
  8
Layer 1
370
    18
  0
POLYLINE
  5
481
330
475
100
AcDbEntity
  8
Layer 1
 62
   250
370
    18
100
AcDb2dPolyline
 66
     1
 10
0.0
 20
0.0
 30
0.0
  0
VERTEX
  5
482
330
481
100
AcDbEntity
  8
Layer 1
 62
   250
370
    18
100
AcDbVertex
100
AcDb2dVertex
 10
7.577006022135416
 20
-5.034444173177083
 30
0.0
  0
VERTEX
  5
483
330
481
100
AcDbEntity
  8
Layer 1
 62
   250
370
    18
100
AcDbVertex
100
AcDb2dVertex
 10
8.741034613715277
 20
-5.034444173177083
 30
0.0
  0
SEQEND
  5
484
330
481
100
AcDbEntity
  8
Layer 1
370
    18
  0
ENDBLK
  5
478
330
475
100
AcDbEntity
  8
0
100
AcDbBlockEnd
  0
BLOCK
  5
493
330
491
100
AcDbEntity
  8
0
100
AcDbBlockBegin
  2
block 29
 70
     0
 71
     0
 10
0.0
 20
0.0
 30
0.0
  3
block 29
  1

  0
POLYLINE
  5
495
330
491
100
AcDbEntity
  8
Layer 1
 62
   250
370
    18
100
AcDb2dPolyline
 66
     1
 10
0.0
 20
0.0
 30
0.0
  0
VERTEX
  5
496
330
495
100
AcDbEntity
  8
Layer 1
 62
   250
370
    18
100
AcDbVertex
100
AcDb2dVertex
 10
5.153069390190972
 20
-4.895555284288194
 30
0.0
  0
VERTEX
  5
497
330
495
100
AcDbEntity
  8
Layer 1
 62
   250
370
    18
100
AcDbVertex
100
AcDb2dVertex
 10
6.327006022135416
 20
-4.895555284288194
 30
0.0
  0
SEQEND
  5
498
330
495
100
AcDbEntity
  8
Layer 1
370
    18
  0
POLYLINE
  5
499
330
491
100
AcDbEntity
  8
Layer 1
 62
   250
370
    18
100
AcDb2dPolyline
 66
     1
 10
0.0
 20
0.0
 30
0.0
  0
VERTEX
  5
49A
330
499
100
AcDbEntity
  8
Layer 1
 62
   250
370
    18
100
AcDbVertex
100
AcDb2dVertex
 10
6.452006022135416
 20
-4.895555284288194
 30
0.0
  0
VERTEX
  5
49B
330
499
100
AcDbEntity
  8
Layer 1
 62
   250
370
    18
100
AcDbVertex
100
AcDb2dVertex
 10
7.452006022135416
 20
-4.895555284288194
 30
0.0
  0
SEQEND
  5
49C
330
499
100
AcDbEntity
  8
Layer 1
370
    18
  0
POLYLINE
  5
49D
330
491
100
AcDbEntity
  8
Layer 1
 62
   250
370
    18
100
AcDb2dPolyline
 66
     1
 10
0.0
 20
0.0
 30
0.0
  0
VERTEX
  5
49E
330
49D
100
AcDbEntity
  8
Layer 1
 62
   250
370
    18
100
AcDbVertex
100
AcDb2dVertex
 10
7.577006022135416
 20
-4.895555284288194
 30
0.0
  0
VERTEX
  5
49F
330
49D
100
AcDbEntity
  8
Layer 1
 62
   250
370
    18
100
AcDbVertex
100
AcDb2dVertex
 10
8.741034613715277
 20
-4.895555284288194
 30
0.0
  0
SEQEND
  5
4A0
330
49D
100
AcDbEntity
  8
Layer 1
370
    18
  0
ENDBLK
  5
494
330
491
100
AcDbEntity
  8
0
100
AcDbBlockEnd
  0
BLOCK
  5
4B6
330
4B4
100
AcDbEntity
  8
0
100
AcDbBlockBegin
  2
block 30
 70
     0
 71
     0
 10
0.0
 20
0.0
 30
0.0
  3
block 30
  1

  0
POLYLINE
  5
4B8
330
4B4
100
AcDbEntity
  8
Layer 1
 62
   250
370
    18
100
AcDb2dPolyline
 66
     1
 10
0.0
 20
0.0
 30
0.0
  0
VERTEX
  5
4B9
330
4B8
100
AcDbEntity
  8
Layer 1
 62
   250
370
    18
100
AcDbVertex
100
AcDb2dVertex
 10
5.72052001953125
 20
-4.129007975260416
 30
0.0
  0
VERTEX
  5
4BA
330
4B8
100
AcDbEntity
  8
Layer 1
 62
   250
370
    18
100
AcDbVertex
100
AcDb2dVertex
 10
8.17489963107639
 20
-4.129007975260416
 30
0.0
  0
SEQEND
  5
4BB
330
4B8
100
AcDbEntity
  8
Layer 1
370
    18
  0
POLYLINE
  5
4BC
330
4B4
100
AcDbEntity
  8
Layer 1
 62
   250
370
    18
100
AcDb2dPolyline
 66
     1
 10
0.0
 20
0.0
 30
0.0
  0
VERTEX
  5
4BD
330
4BC
100
AcDbEntity
  8
Layer 1
 62
   250
370
    18
100
AcDbVertex
100
AcDb2dVertex
 10
5.153069390190972
 20
-4.129007975260416
 30
0.0
  0
VERTEX
  5
4BE
330
4BC
100
AcDbEntity
  8
Layer 1
 62
   250
370
    18
100
AcDbVertex
100
AcDb2dVertex
 10
5.594204372829861
 20
-4.129007975260416
 30
0.0
  0
SEQEND
  5
4BF
330
4BC
100
AcDbEntity
  8
Layer 1
370
    18
  0
POLYLINE
  5
4C0
330
4B4
100
AcDbEntity
  8
Layer 1
 62
   250
370
    18
100
AcDb2dPolyline
 66
     1
 10
0.0
 20
0.0
 30
0.0
  0
VERTEX
  5
4C1
330
4C0
100
AcDbEntity
  8
Layer 1
 62
   250
370
    18
100
AcDbVertex
100
AcDb2dVertex
 10
8.29989963107639
 20
-4.129007975260416
 30
0.0
  0
VERTEX
  5
4C2
330
4C0
100
AcDbEntity
  8
Layer 1
 62
   250
370
    18
100
AcDbVertex
100
AcDb2dVertex
 10
8.741034613715277
 20
-4.129007975260416
 30
0.0
  0
SEQEND
  5
4C3
330
4C0
100
AcDbEntity
  8
Layer 1
370
    18
  0
INSERT
  5
4C5
330
4B4
100
AcDbEntity
  8
Layer 1
100
AcDbBlockReference
  2
block 31
 10
0.0
 20
0.0
 30
0.0
  0
POLYLINE
  5
4D4
330
4B4
100
AcDbEntity
  8
Layer 1
 62
   250
370
    18
100
AcDb2dPolyline
 66
     1
 10
0.0
 20
0.0
 30
0.0
  0
VERTEX
  5
4D5
330
4D4
100
AcDbEntity
  8
Layer 1
 62
   250
370
    18
100
AcDbVertex
100
AcDb2dVertex
 10
5.72052001953125
 20
-3.990119086371528
 30
0.0
  0
VERTEX
  5
4D6
330
4D4
100
AcDbEntity
  8
Layer 1
 62
   250
370
    18
100
AcDbVertex
100
AcDb2dVertex
 10
8.17489963107639
 20
-3.990119086371528
 30
0.0
  0
SEQEND
  5
4D7
330
4D4
100
AcDbEntity
  8
Layer 1
370
    18
  0
POLYLINE
  5
4D8
330
4B4
100
AcDbEntity
  8
Layer 1
 62
   250
370
    18
100
AcDb2dPolyline
 66
     1
 10
0.0
 20
0.0
 30
0.0
  0
VERTEX
  5
4D9
330
4D8
100
AcDbEntity
  8
Layer 1
 62
   250
370
    18
100
AcDbVertex
100
AcDb2dVertex
 10
5.153069390190972
 20
-3.990119086371528
 30
0.0
  0
VERTEX
  5
4DA
330
4D8
100
AcDbEntity
  8
Layer 1
 62
   250
370
    18
100
AcDbVertex
100
AcDb2dVertex
 10
5.594204372829861
 20
-3.990119086371528
 30
0.0
  0
SEQEND
  5
4DB
330
4D8
100
AcDbEntity
  8
Layer 1
370
    18
  0
POLYLINE
  5
4DC
330
4B4
100
AcDbEntity
  8
Layer 1
 62
   250
370
    18
100
AcDb2dPolyline
 66
     1
 10
0.0
 20
0.0
 30
0.0
  0
VERTEX
  5
4DD
330
4DC
100
AcDbEntity
  8
Layer 1
 62
   250
370
    18
100
AcDbVertex
100
AcDb2dVertex
 10
8.29989963107639
 20
-3.990119086371528
 30
0.0
  0
VERTEX
  5
4DE
330
4DC
100
AcDbEntity
  8
Layer 1
 62
   250
370
    18
100
AcDbVertex
100
AcDb2dVertex
 10
8.741034613715277
 20
-3.990119086371528
 30
0.0
  0
SEQEND
  5
4DF
330
4DC
100
AcDbEntity
  8
Layer 1
370
    18
  0
INSERT
  5
4E1
330
4B4
100
AcDbEntity
  8
Layer 1
100
AcDbBlockReference
  2
block 32
 10
0.0
 20
0.0
 30
0.0
  0
POLYLINE
  5
4F0
330
4B4
100
AcDbEntity
  8
Layer 1
 62
   250
370
    18
100
AcDb2dPolyline
 66
     1
 10
0.0
 20
0.0
 30
0.0
  0
VERTEX
  5
4F1
330
4F0
100
AcDbEntity
  8
Layer 1
 62
   250
370
    18
100
AcDbVertex
100
AcDb2dVertex
 10
5.72052001953125
 20
-3.851230197482639
 30
0.0
  0
VERTEX
  5
4F2
330
4F0
100
AcDbEntity
  8
Layer 1
 62
   250
370
    18
100
AcDbVertex
100
AcDb2dVertex
 10
8.17489963107639
 20
-3.851230197482639
 30
0.0
  0
SEQEND
  5
4F3
330
4F0
100
AcDbEntity
  8
Layer 1
370
    18
  0
POLYLINE
  5
4F4
330
4B4
100
AcDbEntity
  8
Layer 1
 62
   250
370
    18
100
AcDb2dPolyline
 66
     1
 10
0.0
 20
0.0
 30
0.0
  0
VERTEX
  5
4F5
330
4F4
100
AcDbEntity
  8
Layer 1
 62
   250
370
    18
100
AcDbVertex
100
AcDb2dVertex
 10
5.153069390190972
 20
-3.851230197482639
 30
0.0
  0
VERTEX
  5
4F6
330
4F4
100
AcDbEntity
  8
Layer 1
 62
   250
370
    18
100
AcDbVertex
100
AcDb2dVertex
 10
5.594204372829861
 20
-3.851230197482639
 30
0.0
  0
SEQEND
  5
4F7
330
4F4
100
AcDbEntity
  8
Layer 1
370
    18
  0
POLYLINE
  5
4F8
330
4B4
100
AcDbEntity
  8
Layer 1
 62
   250
370
    18
100
AcDb2dPolyline
 66
     1
 10
0.0
 20
0.0
 30
0.0
  0
VERTEX
  5
4F9
330
4F8
100
AcDbEntity
  8
Layer 1
 62
   250
370
    18
100
AcDbVertex
100
AcDb2dVertex
 10
8.29989963107639
 20
-3.851230197482639
 30
0.0
  0
VERTEX
  5
4FA
330
4F8
100
AcDbEntity
  8
Layer 1
 62
   250
370
    18
100
AcDbVertex
100
AcDb2dVertex
 10
8.741034613715277
 20
-3.851230197482639
 30
0.0
  0
SEQEND
  5
4FB
330
4F8
100
AcDbEntity
  8
Layer 1
370
    18
  0
INSERT
  5
4FD
330
4B4
100
AcDbEntity
  8
Layer 1
100
AcDbBlockReference
  2
block 33
 10
0.0
 20
0.0
 30
0.0
  0
POLYLINE
  5
50C
330
4B4
100
AcDbEntity
  8
Layer 1
 62
   250
370
    18
100
AcDb2dPolyline
 66
     1
 10
0.0
 20
0.0
 30
0.0
  0
VERTEX
  5
50D
330
50C
100
AcDbEntity
  8
Layer 1
 62
   250
370
    18
100
AcDbVertex
100
AcDb2dVertex
 10
5.72052001953125
 20
-3.71234130859375
 30
0.0
  0
VERTEX
  5
50E
330
50C
100
AcDbEntity
  8
Layer 1
 62
   250
370
    18
100
AcDbVertex
100
AcDb2dVertex
 10
8.17489963107639
 20
-3.71234130859375
 30
0.0
  0
SEQEND
  5
50F
330
50C
100
AcDbEntity
  8
Layer 1
370
    18
  0
POLYLINE
  5
510
330
4B4
100
AcDbEntity
  8
Layer 1
 62
   250
370
    18
100
AcDb2dPolyline
 66
     1
 10
0.0
 20
0.0
 30
0.0
  0
VERTEX
  5
511
330
510
100
AcDbEntity
  8
Layer 1
 62
   250
370
    18
100
AcDbVertex
100
AcDb2dVertex
 10
5.153069390190972
 20
-3.71234130859375
 30
0.0
  0
VERTEX
  5
512
330
510
100
AcDbEntity
  8
Layer 1
 62
   250
370
    18
100
AcDbVertex
100
AcDb2dVertex
 10
5.594204372829861
 20
-3.71234130859375
 30
0.0
  0
SEQEND
  5
513
330
510
100
AcDbEntity
  8
Layer 1
370
    18
  0
POLYLINE
  5
514
330
4B4
100
AcDbEntity
  8
Layer 1
 62
   250
370
    18
100
AcDb2dPolyline
 66
     1
 10
0.0
 20
0.0
 30
0.0
  0
VERTEX
  5
515
330
514
100
AcDbEntity
  8
Layer 1
 62
   250
370
    18
100
AcDbVertex
100
AcDb2dVertex
 10
8.29989963107639
 20
-3.71234130859375
 30
0.0
  0
VERTEX
  5
516
330
514
100
AcDbEntity
  8
Layer 1
 62
   250
370
    18
100
AcDbVertex
100
AcDb2dVertex
 10
8.741034613715277
 20
-3.71234130859375
 30
0.0
  0
SEQEND
  5
517
330
514
100
AcDbEntity
  8
Layer 1
370
    18
  0
INSERT
  5
519
330
4B4
100
AcDbEntity
  8
Layer 1
100
AcDbBlockReference
  2
block 34
 10
0.0
 20
0.0
 30
0.0
  0
POLYLINE
  5
528
330
4B4
100
AcDbEntity
  8
Layer 1
 62
   250
370
    18
100
AcDb2dPolyline
 66
     1
 10
0.0
 20
0.0
 30
0.0
  0
VERTEX
  5
529
330
528
100
AcDbEntity
  8
Layer 1
 62
   250
370
    18
100
AcDbVertex
100
AcDb2dVertex
 10
5.72052001953125
 20
-3.573452419704861
 30
0.0
  0
VERTEX
  5
52A
330
528
100
AcDbEntity
  8
Layer 1
 62
   250
370
    18
100
AcDbVertex
100
AcDb2dVertex
 10
8.17489963107639
 20
-3.573452419704861
 30
0.0
  0
SEQEND
  5
52B
330
528
100
AcDbEntity
  8
Layer 1
370
    18
  0
POLYLINE
  5
52C
330
4B4
100
AcDbEntity
  8
Layer 1
 62
   250
370
    18
100
AcDb2dPolyline
 66
     1
 10
0.0
 20
0.0
 30
0.0
  0
VERTEX
  5
52D
330
52C
100
AcDbEntity
  8
Layer 1
 62
   250
370
    18
100
AcDbVertex
100
AcDb2dVertex
 10
5.153069390190972
 20
-3.573452419704861
 30
0.0
  0
VERTEX
  5
52E
330
52C
100
AcDbEntity
  8
Layer 1
 62
   250
370
    18
100
AcDbVertex
100
AcDb2dVertex
 10
5.594204372829861
 20
-3.573452419704861
 30
0.0
  0
SEQEND
  5
52F
330
52C
100
AcDbEntity
  8
Layer 1
370
    18
  0
POLYLINE
  5
530
330
4B4
100
AcDbEntity
  8
Layer 1
 62
   250
370
    18
100
AcDb2dPolyline
 66
     1
 10
0.0
 20
0.0
 30
0.0
  0
VERTEX
  5
531
330
530
100
AcDbEntity
  8
Layer 1
 62
   250
370
    18
100
AcDbVertex
100
AcDb2dVertex
 10
8.29989963107639
 20
-3.573452419704861
 30
0.0
  0
VERTEX
  5
532
330
530
100
AcDbEntity
  8
Layer 1
 62
   250
370
    18
100
AcDbVertex
100
AcDb2dVertex
 10
8.741034613715277
 20
-3.573452419704861
 30
0.0
  0
SEQEND
  5
533
330
530
100
AcDbEntity
  8
Layer 1
370
    18
  0
INSERT
  5
535
330
4B4
100
AcDbEntity
  8
Layer 1
100
AcDbBlockReference
  2
block 35
 10
0.0
 20
0.0
 30
0.0
  0
POLYLINE
  5
544
330
4B4
100
AcDbEntity
  8
Layer 1
 62
   250
370
    18
100
AcDb2dPolyline
 66
     1
 10
0.0
 20
0.0
 30
0.0
  0
VERTEX
  5
545
330
544
100
AcDbEntity
  8
Layer 1
 62
   250
370
    18
100
AcDbVertex
100
AcDb2dVertex
 10
5.72052001953125
 20
-3.434563530815972
 30
0.0
  0
VERTEX
  5
546
330
544
100
AcDbEntity
  8
Layer 1
 62
   250
370
    18
100
AcDbVertex
100
AcDb2dVertex
 10
8.17489963107639
 20
-3.434563530815972
 30
0.0
  0
SEQEND
  5
547
330
544
100
AcDbEntity
  8
Layer 1
370
    18
  0
POLYLINE
  5
548
330
4B4
100
AcDbEntity
  8
Layer 1
 62
   250
370
    18
100
AcDb2dPolyline
 66
     1
 10
0.0
 20
0.0
 30
0.0
  0
VERTEX
  5
549
330
548
100
AcDbEntity
  8
Layer 1
 62
   250
370
    18
100
AcDbVertex
100
AcDb2dVertex
 10
5.153069390190972
 20
-3.434563530815972
 30
0.0
  0
VERTEX
  5
54A
330
548
100
AcDbEntity
  8
Layer 1
 62
   250
370
    18
100
AcDbVertex
100
AcDb2dVertex
 10
5.594204372829861
 20
-3.434563530815972
 30
0.0
  0
SEQEND
  5
54B
330
548
100
AcDbEntity
  8
Layer 1
370
    18
  0
POLYLINE
  5
54C
330
4B4
100
AcDbEntity
  8
Layer 1
 62
   250
370
    18
100
AcDb2dPolyline
 66
     1
 10
0.0
 20
0.0
 30
0.0
  0
VERTEX
  5
54D
330
54C
100
AcDbEntity
  8
Layer 1
 62
   250
370
    18
100
AcDbVertex
100
AcDb2dVertex
 10
8.29989963107639
 20
-3.434563530815972
 30
0.0
  0
VERTEX
  5
54E
330
54C
100
AcDbEntity
  8
Layer 1
 62
   250
370
    18
100
AcDbVertex
100
AcDb2dVertex
 10
8.741034613715277
 20
-3.434563530815972
 30
0.0
  0
SEQEND
  5
54F
330
54C
100
AcDbEntity
  8
Layer 1
370
    18
  0
INSERT
  5
551
330
4B4
100
AcDbEntity
  8
Layer 1
100
AcDbBlockReference
  2
block 36
 10
0.0
 20
0.0
 30
0.0
  0
POLYLINE
  5
560
330
4B4
100
AcDbEntity
  8
Layer 1
 62
   250
370
    18
100
AcDb2dPolyline
 66
     1
 10
0.0
 20
0.0
 30
0.0
  0
VERTEX
  5
561
330
560
100
AcDbEntity
  8
Layer 1
 62
   250
370
    18
100
AcDbVertex
100
AcDb2dVertex
 10
5.72052001953125
 20
-3.295674641927083
 30
0.0
  0
VERTEX
  5
562
330
560
100
AcDbEntity
  8
Layer 1
 62
   250
370
    18
100
AcDbVertex
100
AcDb2dVertex
 10
8.17489963107639
 20
-3.295674641927083
 30
0.0
  0
SEQEND
  5
563
330
560
100
AcDbEntity
  8
Layer 1
370
    18
  0
POLYLINE
  5
564
330
4B4
100
AcDbEntity
  8
Layer 1
 62
   250
370
    18
100
AcDb2dPolyline
 66
     1
 10
0.0
 20
0.0
 30
0.0
  0
VERTEX
  5
565
330
564
100
AcDbEntity
  8
Layer 1
 62
   250
370
    18
100
AcDbVertex
100
AcDb2dVertex
 10
5.153069390190972
 20
-3.295674641927083
 30
0.0
  0
VERTEX
  5
566
330
564
100
AcDbEntity
  8
Layer 1
 62
   250
370
    18
100
AcDbVertex
100
AcDb2dVertex
 10
5.594204372829861
 20
-3.295674641927083
 30
0.0
  0
SEQEND
  5
567
330
564
100
AcDbEntity
  8
Layer 1
370
    18
  0
POLYLINE
  5
568
330
4B4
100
AcDbEntity
  8
Layer 1
 62
   250
370
    18
100
AcDb2dPolyline
 66
     1
 10
0.0
 20
0.0
 30
0.0
  0
VERTEX
  5
569
330
568
100
AcDbEntity
  8
Layer 1
 62
   250
370
    18
100
AcDbVertex
100
AcDb2dVertex
 10
8.29989963107639
 20
-3.295674641927083
 30
0.0
  0
VERTEX
  5
56A
330
568
100
AcDbEntity
  8
Layer 1
 62
   250
370
    18
100
AcDbVertex
100
AcDb2dVertex
 10
8.741034613715277
 20
-3.295674641927083
 30
0.0
  0
SEQEND
  5
56B
330
568
100
AcDbEntity
  8
Layer 1
370
    18
  0
INSERT
  5
56D
330
4B4
100
AcDbEntity
  8
Layer 1
100
AcDbBlockReference
  2
block 37
 10
0.0
 20
0.0
 30
0.0
  0
POLYLINE
  5
57C
330
4B4
100
AcDbEntity
  8
Layer 1
 62
   250
370
    18
100
AcDb2dPolyline
 66
     1
 10
0.0
 20
0.0
 30
0.0
  0
VERTEX
  5
57D
330
57C
100
AcDbEntity
  8
Layer 1
 62
   250
370
    18
100
AcDbVertex
100
AcDb2dVertex
 10
5.72052001953125
 20
-3.156785753038194
 30
0.0
  0
VERTEX
  5
57E
330
57C
100
AcDbEntity
  8
Layer 1
 62
   250
370
    18
100
AcDbVertex
100
AcDb2dVertex
 10
8.17489963107639
 20
-3.156785753038194
 30
0.0
  0
SEQEND
  5
57F
330
57C
100
AcDbEntity
  8
Layer 1
370
    18
  0
POLYLINE
  5
580
330
4B4
100
AcDbEntity
  8
Layer 1
 62
   250
370
    18
100
AcDb2dPolyline
 66
     1
 10
0.0
 20
0.0
 30
0.0
  0
VERTEX
  5
581
330
580
100
AcDbEntity
  8
Layer 1
 62
   250
370
    18
100
AcDbVertex
100
AcDb2dVertex
 10
5.153069390190972
 20
-3.156785753038194
 30
0.0
  0
VERTEX
  5
582
330
580
100
AcDbEntity
  8
Layer 1
 62
   250
370
    18
100
AcDbVertex
100
AcDb2dVertex
 10
5.594204372829861
 20
-3.156785753038194
 30
0.0
  0
SEQEND
  5
583
330
580
100
AcDbEntity
  8
Layer 1
370
    18
  0
POLYLINE
  5
584
330
4B4
100
AcDbEntity
  8
Layer 1
 62
   250
370
    18
100
AcDb2dPolyline
 66
     1
 10
0.0
 20
0.0
 30
0.0
  0
VERTEX
  5
585
330
584
100
AcDbEntity
  8
Layer 1
 62
   250
370
    18
100
AcDbVertex
100
AcDb2dVertex
 10
8.29989963107639
 20
-3.156785753038194
 30
0.0
  0
VERTEX
  5
586
330
584
100
AcDbEntity
  8
Layer 1
 62
   250
370
    18
100
AcDbVertex
100
AcDb2dVertex
 10
8.741034613715277
 20
-3.156785753038194
 30
0.0
  0
SEQEND
  5
587
330
584
100
AcDbEntity
  8
Layer 1
370
    18
  0
INSERT
  5
589
330
4B4
100
AcDbEntity
  8
Layer 1
100
AcDbBlockReference
  2
block 38
 10
0.0
 20
0.0
 30
0.0
  0
POLYLINE
  5
598
330
4B4
100
AcDbEntity
  8
Layer 1
 62
   250
370
    18
100
AcDb2dPolyline
 66
     1
 10
0.0
 20
0.0
 30
0.0
  0
VERTEX
  5
599
330
598
100
AcDbEntity
  8
Layer 1
 62
   250
370
    18
100
AcDbVertex
100
AcDb2dVertex
 10
5.72052001953125
 20
-3.017896864149305
 30
0.0
  0
VERTEX
  5
59A
330
598
100
AcDbEntity
  8
Layer 1
 62
   250
370
    18
100
AcDbVertex
100
AcDb2dVertex
 10
8.17489963107639
 20
-3.017896864149305
 30
0.0
  0
SEQEND
  5
59B
330
598
100
AcDbEntity
  8
Layer 1
370
    18
  0
POLYLINE
  5
59C
330
4B4
100
AcDbEntity
  8
Layer 1
 62
   250
370
    18
100
AcDb2dPolyline
 66
     1
 10
0.0
 20
0.0
 30
0.0
  0
VERTEX
  5
59D
330
59C
100
AcDbEntity
  8
Layer 1
 62
   250
370
    18
100
AcDbVertex
100
AcDb2dVertex
 10
5.153069390190972
 20
-3.017896864149305
 30
0.0
  0
VERTEX
  5
59E
330
59C
100
AcDbEntity
  8
Layer 1
 62
   250
370
    18
100
AcDbVertex
100
AcDb2dVertex
 10
5.594204372829861
 20
-3.017896864149305
 30
0.0
  0
SEQEND
  5
59F
330
59C
100
AcDbEntity
  8
Layer 1
370
    18
  0
POLYLINE
  5
5A0
330
4B4
100
AcDbEntity
  8
Layer 1
 62
   250
370
    18
100
AcDb2dPolyline
 66
     1
 10
0.0
 20
0.0
 30
0.0
  0
VERTEX
  5
5A1
330
5A0
100
AcDbEntity
  8
Layer 1
 62
   250
370
    18
100
AcDbVertex
100
AcDb2dVertex
 10
8.29989963107639
 20
-3.017896864149305
 30
0.0
  0
VERTEX
  5
5A2
330
5A0
100
AcDbEntity
  8
Layer 1
 62
   250
370
    18
100
AcDbVertex
100
AcDb2dVertex
 10
8.741034613715277
 20
-3.017896864149305
 30
0.0
  0
SEQEND
  5
5A3
330
5A0
100
AcDbEntity
  8
Layer 1
370
    18
  0
INSERT
  5
5A5
330
4B4
100
AcDbEntity
  8
Layer 1
100
AcDbBlockReference
  2
block 39
 10
0.0
 20
0.0
 30
0.0
  0
POLYLINE
  5
5B4
330
4B4
100
AcDbEntity
  8
Layer 1
 62
   250
370
    18
100
AcDb2dPolyline
 66
     1
 10
0.0
 20
0.0
 30
0.0
  0
VERTEX
  5
5B5
330
5B4
100
AcDbEntity
  8
Layer 1
 62
   250
370
    18
100
AcDbVertex
100
AcDb2dVertex
 10
5.72052001953125
 20
-2.879007975260417
 30
0.0
  0
VERTEX
  5
5B6
330
5B4
100
AcDbEntity
  8
Layer 1
 62
   250
370
    18
100
AcDbVertex
100
AcDb2dVertex
 10
8.17489963107639
 20
-2.879007975260417
 30
0.0
  0
SEQEND
  5
5B7
330
5B4
100
AcDbEntity
  8
Layer 1
370
    18
  0
POLYLINE
  5
5B8
330
4B4
100
AcDbEntity
  8
Layer 1
 62
   250
370
    18
100
AcDb2dPolyline
 66
     1
 10
0.0
 20
0.0
 30
0.0
  0
VERTEX
  5
5B9
330
5B8
100
AcDbEntity
  8
Layer 1
 62
   250
370
    18
100
AcDbVertex
100
AcDb2dVertex
 10
5.153069390190972
 20
-2.879007975260417
 30
0.0
  0
VERTEX
  5
5BA
330
5B8
100
AcDbEntity
  8
Layer 1
 62
   250
370
    18
100
AcDbVertex
100
AcDb2dVertex
 10
5.594204372829861
 20
-2.879007975260417
 30
0.0
  0
SEQEND
  5
5BB
330
5B8
100
AcDbEntity
  8
Layer 1
370
    18
  0
POLYLINE
  5
5BC
330
4B4
100
AcDbEntity
  8
Layer 1
 62
   250
370
    18
100
AcDb2dPolyline
 66
     1
 10
0.0
 20
0.0
 30
0.0
  0
VERTEX
  5
5BD
330
5BC
100
AcDbEntity
  8
Layer 1
 62
   250
370
    18
100
AcDbVertex
100
AcDb2dVertex
 10
8.29989963107639
 20
-2.879007975260417
 30
0.0
  0
VERTEX
  5
5BE
330
5BC
100
AcDbEntity
  8
Layer 1
 62
   250
370
    18
100
AcDbVertex
100
AcDb2dVertex
 10
8.741034613715277
 20
-2.879007975260417
 30
0.0
  0
SEQEND
  5
5BF
330
5BC
100
AcDbEntity
  8
Layer 1
370
    18
  0
INSERT
  5
5C1
330
4B4
100
AcDbEntity
  8
Layer 1
100
AcDbBlockReference
  2
block 40
 10
0.0
 20
0.0
 30
0.0
  0
POLYLINE
  5
5D0
330
4B4
100
AcDbEntity
  8
Layer 1
 62
   250
370
    18
100
AcDb2dPolyline
 66
     1
 10
0.0
 20
0.0
 30
0.0
  0
VERTEX
  5
5D1
330
5D0
100
AcDbEntity
  8
Layer 1
 62
   250
370
    18
100
AcDbVertex
100
AcDb2dVertex
 10
5.72052001953125
 20
-2.740119086371528
 30
0.0
  0
VERTEX
  5
5D2
330
5D0
100
AcDbEntity
  8
Layer 1
 62
   250
370
    18
100
AcDbVertex
100
AcDb2dVertex
 10
8.17489963107639
 20
-2.740119086371528
 30
0.0
  0
SEQEND
  5
5D3
330
5D0
100
AcDbEntity
  8
Layer 1
370
    18
  0
POLYLINE
  5
5D4
330
4B4
100
AcDbEntity
  8
Layer 1
 62
   250
370
    18
100
AcDb2dPolyline
 66
     1
 10
0.0
 20
0.0
 30
0.0
  0
VERTEX
  5
5D5
330
5D4
100
AcDbEntity
  8
Layer 1
 62
   250
370
    18
100
AcDbVertex
100
AcDb2dVertex
 10
5.153069390190972
 20
-2.740119086371528
 30
0.0
  0
VERTEX
  5
5D6
330
5D4
100
AcDbEntity
  8
Layer 1
 62
   250
370
    18
100
AcDbVertex
100
AcDb2dVertex
 10
5.594204372829861
 20
-2.740119086371528
 30
0.0
  0
SEQEND
  5
5D7
330
5D4
100
AcDbEntity
  8
Layer 1
370
    18
  0
POLYLINE
  5
5D8
330
4B4
100
AcDbEntity
  8
Layer 1
 62
   250
370
    18
100
AcDb2dPolyline
 66
     1
 10
0.0
 20
0.0
 30
0.0
  0
VERTEX
  5
5D9
330
5D8
100
AcDbEntity
  8
Layer 1
 62
   250
370
    18
100
AcDbVertex
100
AcDb2dVertex
 10
8.29989963107639
 20
-2.740119086371528
 30
0.0
  0
VERTEX
  5
5DA
330
5D8
100
AcDbEntity
  8
Layer 1
 62
   250
370
    18
100
AcDbVertex
100
AcDb2dVertex
 10
8.741034613715277
 20
-2.740119086371528
 30
0.0
  0
SEQEND
  5
5DB
330
5D8
100
AcDbEntity
  8
Layer 1
370
    18
  0
INSERT
  5
5DD
330
4B4
100
AcDbEntity
  8
Layer 1
100
AcDbBlockReference
  2
block 41
 10
0.0
 20
0.0
 30
0.0
  0
POLYLINE
  5
5EC
330
4B4
100
AcDbEntity
  8
Layer 1
 62
   250
370
    18
100
AcDb2dPolyline
 66
     1
 10
0.0
 20
0.0
 30
0.0
  0
VERTEX
  5
5ED
330
5EC
100
AcDbEntity
  8
Layer 1
 62
   250
370
    18
100
AcDbVertex
100
AcDb2dVertex
 10
5.72052001953125
 20
-2.601230197482639
 30
0.0
  0
VERTEX
  5
5EE
330
5EC
100
AcDbEntity
  8
Layer 1
 62
   250
370
    18
100
AcDbVertex
100
AcDb2dVertex
 10
8.17489963107639
 20
-2.601230197482639
 30
0.0
  0
SEQEND
  5
5EF
330
5EC
100
AcDbEntity
  8
Layer 1
370
    18
  0
POLYLINE
  5
5F0
330
4B4
100
AcDbEntity
  8
Layer 1
 62
   250
370
    18
100
AcDb2dPolyline
 66
     1
 10
0.0
 20
0.0
 30
0.0
  0
VERTEX
  5
5F1
330
5F0
100
AcDbEntity
  8
Layer 1
 62
   250
370
    18
100
AcDbVertex
100
AcDb2dVertex
 10
5.153069390190972
 20
-2.601230197482639
 30
0.0
  0
VERTEX
  5
5F2
330
5F0
100
AcDbEntity
  8
Layer 1
 62
   250
370
    18
100
AcDbVertex
100
AcDb2dVertex
 10
5.594204372829861
 20
-2.601230197482639
 30
0.0
  0
SEQEND
  5
5F3
330
5F0
100
AcDbEntity
  8
Layer 1
370
    18
  0
POLYLINE
  5
5F4
330
4B4
100
AcDbEntity
  8
Layer 1
 62
   250
370
    18
100
AcDb2dPolyline
 66
     1
 10
0.0
 20
0.0
 30
0.0
  0
VERTEX
  5
5F5
330
5F4
100
AcDbEntity
  8
Layer 1
 62
   250
370
    18
100
AcDbVertex
100
AcDb2dVertex
 10
8.29989963107639
 20
-2.601230197482639
 30
0.0
  0
VERTEX
  5
5F6
330
5F4
100
AcDbEntity
  8
Layer 1
 62
   250
370
    18
100
AcDbVertex
100
AcDb2dVertex
 10
8.741034613715277
 20
-2.601230197482639
 30
0.0
  0
SEQEND
  5
5F7
330
5F4
100
AcDbEntity
  8
Layer 1
370
    18
  0
INSERT
  5
5F9
330
4B4
100
AcDbEntity
  8
Layer 1
100
AcDbBlockReference
  2
block 42
 10
0.0
 20
0.0
 30
0.0
  0
POLYLINE
  5
608
330
4B4
100
AcDbEntity
  8
Layer 1
 62
   250
370
    18
100
AcDb2dPolyline
 66
     1
 10
0.0
 20
0.0
 30
0.0
  0
VERTEX
  5
609
330
608
100
AcDbEntity
  8
Layer 1
 62
   250
370
    18
100
AcDbVertex
100
AcDb2dVertex
 10
5.72052001953125
 20
-2.46234130859375
 30
0.0
  0
VERTEX
  5
60A
330
608
100
AcDbEntity
  8
Layer 1
 62
   250
370
    18
100
AcDbVertex
100
AcDb2dVertex
 10
8.17489963107639
 20
-2.46234130859375
 30
0.0
  0
SEQEND
  5
60B
330
608
100
AcDbEntity
  8
Layer 1
370
    18
  0
POLYLINE
  5
60C
330
4B4
100
AcDbEntity
  8
Layer 1
 62
   250
370
    18
100
AcDb2dPolyline
 66
     1
 10
0.0
 20
0.0
 30
0.0
  0
VERTEX
  5
60D
330
60C
100
AcDbEntity
  8
Layer 1
 62
   250
370
    18
100
AcDbVertex
100
AcDb2dVertex
 10
5.153069390190972
 20
-2.46234130859375
 30
0.0
  0
VERTEX
  5
60E
330
60C
100
AcDbEntity
  8
Layer 1
 62
   250
370
    18
100
AcDbVertex
100
AcDb2dVertex
 10
5.594204372829861
 20
-2.46234130859375
 30
0.0
  0
SEQEND
  5
60F
330
60C
100
AcDbEntity
  8
Layer 1
370
    18
  0
POLYLINE
  5
610
330
4B4
100
AcDbEntity
  8
Layer 1
 62
   250
370
    18
100
AcDb2dPolyline
 66
     1
 10
0.0
 20
0.0
 30
0.0
  0
VERTEX
  5
611
330
610
100
AcDbEntity
  8
Layer 1
 62
   250
370
    18
100
AcDbVertex
100
AcDb2dVertex
 10
8.29989963107639
 20
-2.46234130859375
 30
0.0
  0
VERTEX
  5
612
330
610
100
AcDbEntity
  8
Layer 1
 62
   250
370
    18
100
AcDbVertex
100
AcDb2dVertex
 10
8.741034613715277
 20
-2.46234130859375
 30
0.0
  0
SEQEND
  5
613
330
610
100
AcDbEntity
  8
Layer 1
370
    18
  0
INSERT
  5
615
330
4B4
100
AcDbEntity
  8
Layer 1
100
AcDbBlockReference
  2
block 43
 10
0.0
 20
0.0
 30
0.0
  0
POLYLINE
  5
624
330
4B4
100
AcDbEntity
  8
Layer 1
 62
   250
370
    18
100
AcDb2dPolyline
 66
     1
 10
0.0
 20
0.0
 30
0.0
  0
VERTEX
  5
625
330
624
100
AcDbEntity
  8
Layer 1
 62
   250
370
    18
100
AcDbVertex
100
AcDb2dVertex
 10
5.72052001953125
 20
-2.323452419704861
 30
0.0
  0
VERTEX
  5
626
330
624
100
AcDbEntity
  8
Layer 1
 62
   250
370
    18
100
AcDbVertex
100
AcDb2dVertex
 10
8.17489963107639
 20
-2.323452419704861
 30
0.0
  0
SEQEND
  5
627
330
624
100
AcDbEntity
  8
Layer 1
370
    18
  0
POLYLINE
  5
628
330
4B4
100
AcDbEntity
  8
Layer 1
 62
   250
370
    18
100
AcDb2dPolyline
 66
     1
 10
0.0
 20
0.0
 30
0.0
  0
VERTEX
  5
629
330
628
100
AcDbEntity
  8
Layer 1
 62
   250
370
    18
100
AcDbVertex
100
AcDb2dVertex
 10
5.153069390190972
 20
-2.323452419704861
 30
0.0
  0
VERTEX
  5
62A
330
628
100
AcDbEntity
  8
Layer 1
 62
   250
370
    18
100
AcDbVertex
100
AcDb2dVertex
 10
5.594204372829861
 20
-2.323452419704861
 30
0.0
  0
SEQEND
  5
62B
330
628
100
AcDbEntity
  8
Layer 1
370
    18
  0
POLYLINE
  5
62C
330
4B4
100
AcDbEntity
  8
Layer 1
 62
   250
370
    18
100
AcDb2dPolyline
 66
     1
 10
0.0
 20
0.0
 30
0.0
  0
VERTEX
  5
62D
330
62C
100
AcDbEntity
  8
Layer 1
 62
   250
370
    18
100
AcDbVertex
100
AcDb2dVertex
 10
8.29989963107639
 20
-2.323452419704861
 30
0.0
  0
VERTEX
  5
62E
330
62C
100
AcDbEntity
  8
Layer 1
 62
   250
370
    18
100
AcDbVertex
100
AcDb2dVertex
 10
8.741034613715277
 20
-2.323452419704861
 30
0.0
  0
SEQEND
  5
62F
330
62C
100
AcDbEntity
  8
Layer 1
370
    18
  0
INSERT
  5
631
330
4B4
100
AcDbEntity
  8
Layer 1
100
AcDbBlockReference
  2
block 44
 10
0.0
 20
0.0
 30
0.0
  0
POLYLINE
  5
640
330
4B4
100
AcDbEntity
  8
Layer 1
 62
   250
370
    18
100
AcDb2dPolyline
 66
     1
 10
0.0
 20
0.0
 30
0.0
  0
VERTEX
  5
641
330
640
100
AcDbEntity
  8
Layer 1
 62
   250
370
    18
100
AcDbVertex
100
AcDb2dVertex
 10
5.72052001953125
 20
-2.184563530815972
 30
0.0
  0
VERTEX
  5
642
330
640
100
AcDbEntity
  8
Layer 1
 62
   250
370
    18
100
AcDbVertex
100
AcDb2dVertex
 10
8.17489963107639
 20
-2.184563530815972
 30
0.0
  0
SEQEND
  5
643
330
640
100
AcDbEntity
  8
Layer 1
370
    18
  0
POLYLINE
  5
644
330
4B4
100
AcDbEntity
  8
Layer 1
 62
   250
370
    18
100
AcDb2dPolyline
 66
     1
 10
0.0
 20
0.0
 30
0.0
  0
VERTEX
  5
645
330
644
100
AcDbEntity
  8
Layer 1
 62
   250
370
    18
100
AcDbVertex
100
AcDb2dVertex
 10
5.153069390190972
 20
-2.184563530815972
 30
0.0
  0
VERTEX
  5
646
330
644
100
AcDbEntity
  8
Layer 1
 62
   250
370
    18
100
AcDbVertex
100
AcDb2dVertex
 10
5.594204372829861
 20
-2.184563530815972
 30
0.0
  0
SEQEND
  5
647
330
644
100
AcDbEntity
  8
Layer 1
370
    18
  0
POLYLINE
  5
648
330
4B4
100
AcDbEntity
  8
Layer 1
 62
   250
370
    18
100
AcDb2dPolyline
 66
     1
 10
0.0
 20
0.0
 30
0.0
  0
VERTEX
  5
649
330
648
100
AcDbEntity
  8
Layer 1
 62
   250
370
    18
100
AcDbVertex
100
AcDb2dVertex
 10
8.29989963107639
 20
-2.184563530815972
 30
0.0
  0
VERTEX
  5
64A
330
648
100
AcDbEntity
  8
Layer 1
 62
   250
370
    18
100
AcDbVertex
100
AcDb2dVertex
 10
8.741034613715277
 20
-2.184563530815972
 30
0.0
  0
SEQEND
  5
64B
330
648
100
AcDbEntity
  8
Layer 1
370
    18
  0
INSERT
  5
64D
330
4B4
100
AcDbEntity
  8
Layer 1
100
AcDbBlockReference
  2
block 45
 10
0.0
 20
0.0
 30
0.0
  0
POLYLINE
  5
65C
330
4B4
100
AcDbEntity
  8
Layer 1
 62
   250
370
    18
100
AcDb2dPolyline
 66
     1
 10
0.0
 20
0.0
 30
0.0
  0
VERTEX
  5
65D
330
65C
100
AcDbEntity
  8
Layer 1
 62
   250
370
    18
100
AcDbVertex
100
AcDb2dVertex
 10
5.72052001953125
 20
-2.045674641927083
 30
0.0
  0
VERTEX
  5
65E
330
65C
100
AcDbEntity
  8
Layer 1
 62
   250
370
    18
100
AcDbVertex
100
AcDb2dVertex
 10
8.17489963107639
 20
-2.045674641927083
 30
0.0
  0
SEQEND
  5
65F
330
65C
100
AcDbEntity
  8
Layer 1
370
    18
  0
POLYLINE
  5
660
330
4B4
100
AcDbEntity
  8
Layer 1
 62
   250
370
    18
100
AcDb2dPolyline
 66
     1
 10
0.0
 20
0.0
 30
0.0
  0
VERTEX
  5
661
330
660
100
AcDbEntity
  8
Layer 1
 62
   250
370
    18
100
AcDbVertex
100
AcDb2dVertex
 10
5.153069390190972
 20
-2.045674641927083
 30
0.0
  0
VERTEX
  5
662
330
660
100
AcDbEntity
  8
Layer 1
 62
   250
370
    18
100
AcDbVertex
100
AcDb2dVertex
 10
5.594204372829861
 20
-2.045674641927083
 30
0.0
  0
SEQEND
  5
663
330
660
100
AcDbEntity
  8
Layer 1
370
    18
  0
POLYLINE
  5
664
330
4B4
100
AcDbEntity
  8
Layer 1
 62
   250
370
    18
100
AcDb2dPolyline
 66
     1
 10
0.0
 20
0.0
 30
0.0
  0
VERTEX
  5
665
330
664
100
AcDbEntity
  8
Layer 1
 62
   250
370
    18
100
AcDbVertex
100
AcDb2dVertex
 10
8.29989963107639
 20
-2.045674641927083
 30
0.0
  0
VERTEX
  5
666
330
664
100
AcDbEntity
  8
Layer 1
 62
   250
370
    18
100
AcDbVertex
100
AcDb2dVertex
 10
8.741034613715277
 20
-2.045674641927083
 30
0.0
  0
SEQEND
  5
667
330
664
100
AcDbEntity
  8
Layer 1
370
    18
  0
INSERT
  5
669
330
4B4
100
AcDbEntity
  8
Layer 1
100
AcDbBlockReference
  2
block 46
 10
0.0
 20
0.0
 30
0.0
  0
POLYLINE
  5
678
330
4B4
100
AcDbEntity
  8
Layer 1
 62
   250
370
    18
100
AcDb2dPolyline
 66
     1
 10
0.0
 20
0.0
 30
0.0
  0
VERTEX
  5
679
330
678
100
AcDbEntity
  8
Layer 1
 62
   250
370
    18
100
AcDbVertex
100
AcDb2dVertex
 10
5.72052001953125
 20
-1.906785753038194
 30
0.0
  0
VERTEX
  5
67A
330
678
100
AcDbEntity
  8
Layer 1
 62
   250
370
    18
100
AcDbVertex
100
AcDb2dVertex
 10
8.17489963107639
 20
-1.906785753038194
 30
0.0
  0
SEQEND
  5
67B
330
678
100
AcDbEntity
  8
Layer 1
370
    18
  0
POLYLINE
  5
67C
330
4B4
100
AcDbEntity
  8
Layer 1
 62
   250
370
    18
100
AcDb2dPolyline
 66
     1
 10
0.0
 20
0.0
 30
0.0
  0
VERTEX
  5
67D
330
67C
100
AcDbEntity
  8
Layer 1
 62
   250
370
    18
100
AcDbVertex
100
AcDb2dVertex
 10
5.153069390190972
 20
-1.906785753038194
 30
0.0
  0
VERTEX
  5
67E
330
67C
100
AcDbEntity
  8
Layer 1
 62
   250
370
    18
100
AcDbVertex
100
AcDb2dVertex
 10
5.594204372829861
 20
-1.906785753038194
 30
0.0
  0
SEQEND
  5
67F
330
67C
100
AcDbEntity
  8
Layer 1
370
    18
  0
POLYLINE
  5
680
330
4B4
100
AcDbEntity
  8
Layer 1
 62
   250
370
    18
100
AcDb2dPolyline
 66
     1
 10
0.0
 20
0.0
 30
0.0
  0
VERTEX
  5
681
330
680
100
AcDbEntity
  8
Layer 1
 62
   250
370
    18
100
AcDbVertex
100
AcDb2dVertex
 10
8.29989963107639
 20
-1.906785753038194
 30
0.0
  0
VERTEX
  5
682
330
680
100
AcDbEntity
  8
Layer 1
 62
   250
370
    18
100
AcDbVertex
100
AcDb2dVertex
 10
8.741034613715277
 20
-1.906785753038194
 30
0.0
  0
SEQEND
  5
683
330
680
100
AcDbEntity
  8
Layer 1
370
    18
  0
INSERT
  5
685
330
4B4
100
AcDbEntity
  8
Layer 1
100
AcDbBlockReference
  2
block 47
 10
0.0
 20
0.0
 30
0.0
  0
POLYLINE
  5
694
330
4B4
100
AcDbEntity
  8
Layer 1
 62
   250
370
    18
100
AcDb2dPolyline
 66
     1
 10
0.0
 20
0.0
 30
0.0
  0
VERTEX
  5
695
330
694
100
AcDbEntity
  8
Layer 1
 62
   250
370
    18
100
AcDbVertex
100
AcDb2dVertex
 10
5.72052001953125
 20
-1.767896864149305
 30
0.0
  0
VERTEX
  5
696
330
694
100
AcDbEntity
  8
Layer 1
 62
   250
370
    18
100
AcDbVertex
100
AcDb2dVertex
 10
8.17489963107639
 20
-1.767896864149305
 30
0.0
  0
SEQEND
  5
697
330
694
100
AcDbEntity
  8
Layer 1
370
    18
  0
POLYLINE
  5
698
330
4B4
100
AcDbEntity
  8
Layer 1
 62
   250
370
    18
100
AcDb2dPolyline
 66
     1
 10
0.0
 20
0.0
 30
0.0
  0
VERTEX
  5
699
330
698
100
AcDbEntity
  8
Layer 1
 62
   250
370
    18
100
AcDbVertex
100
AcDb2dVertex
 10
5.153069390190972
 20
-1.767896864149305
 30
0.0
  0
VERTEX
  5
69A
330
698
100
AcDbEntity
  8
Layer 1
 62
   250
370
    18
100
AcDbVertex
100
AcDb2dVertex
 10
5.594204372829861
 20
-1.767896864149305
 30
0.0
  0
SEQEND
  5
69B
330
698
100
AcDbEntity
  8
Layer 1
370
    18
  0
POLYLINE
  5
69C
330
4B4
100
AcDbEntity
  8
Layer 1
 62
   250
370
    18
100
AcDb2dPolyline
 66
     1
 10
0.0
 20
0.0
 30
0.0
  0
VERTEX
  5
69D
330
69C
100
AcDbEntity
  8
Layer 1
 62
   250
370
    18
100
AcDbVertex
100
AcDb2dVertex
 10
8.29989963107639
 20
-1.767896864149305
 30
0.0
  0
VERTEX
  5
69E
330
69C
100
AcDbEntity
  8
Layer 1
 62
   250
370
    18
100
AcDbVertex
100
AcDb2dVertex
 10
8.741034613715277
 20
-1.767896864149305
 30
0.0
  0
SEQEND
  5
69F
330
69C
100
AcDbEntity
  8
Layer 1
370
    18
  0
INSERT
  5
6A1
330
4B4
100
AcDbEntity
  8
Layer 1
100
AcDbBlockReference
  2
block 48
 10
0.0
 20
0.0
 30
0.0
  0
POLYLINE
  5
6B0
330
4B4
100
AcDbEntity
  8
Layer 1
 62
   250
370
    18
100
AcDb2dPolyline
 66
     1
 10
0.0
 20
0.0
 30
0.0
  0
VERTEX
  5
6B1
330
6B0
100
AcDbEntity
  8
Layer 1
 62
   250
370
    18
100
AcDbVertex
100
AcDb2dVertex
 10
5.72052001953125
 20
-1.629007975260417
 30
0.0
  0
VERTEX
  5
6B2
330
6B0
100
AcDbEntity
  8
Layer 1
 62
   250
370
    18
100
AcDbVertex
100
AcDb2dVertex
 10
8.17489963107639
 20
-1.629007975260417
 30
0.0
  0
SEQEND
  5
6B3
330
6B0
100
AcDbEntity
  8
Layer 1
370
    18
  0
POLYLINE
  5
6B4
330
4B4
100
AcDbEntity
  8
Layer 1
 62
   250
370
    18
100
AcDb2dPolyline
 66
     1
 10
0.0
 20
0.0
 30
0.0
  0
VERTEX
  5
6B5
330
6B4
100
AcDbEntity
  8
Layer 1
 62
   250
370
    18
100
AcDbVertex
100
AcDb2dVertex
 10
5.153069390190972
 20
-1.629007975260417
 30
0.0
  0
VERTEX
  5
6B6
330
6B4
100
AcDbEntity
  8
Layer 1
 62
   250
370
    18
100
AcDbVertex
100
AcDb2dVertex
 10
5.594204372829861
 20
-1.629007975260417
 30
0.0
  0
SEQEND
  5
6B7
330
6B4
100
AcDbEntity
  8
Layer 1
370
    18
  0
POLYLINE
  5
6B8
330
4B4
100
AcDbEntity
  8
Layer 1
 62
   250
370
    18
100
AcDb2dPolyline
 66
     1
 10
0.0
 20
0.0
 30
0.0
  0
VERTEX
  5
6B9
330
6B8
100
AcDbEntity
  8
Layer 1
 62
   250
370
    18
100
AcDbVertex
100
AcDb2dVertex
 10
8.29989963107639
 20
-1.629007975260417
 30
0.0
  0
VERTEX
  5
6BA
330
6B8
100
AcDbEntity
  8
Layer 1
 62
   250
370
    18
100
AcDbVertex
100
AcDb2dVertex
 10
8.741034613715277
 20
-1.629007975260417
 30
0.0
  0
SEQEND
  5
6BB
330
6B8
100
AcDbEntity
  8
Layer 1
370
    18
  0
INSERT
  5
6BD
330
4B4
100
AcDbEntity
  8
Layer 1
100
AcDbBlockReference
  2
block 49
 10
0.0
 20
0.0
 30
0.0
  0
POLYLINE
  5
6CC
330
4B4
100
AcDbEntity
  8
Layer 1
 62
   250
370
    18
100
AcDb2dPolyline
 66
     1
 10
0.0
 20
0.0
 30
0.0
  0
VERTEX
  5
6CD
330
6CC
100
AcDbEntity
  8
Layer 1
 62
   250
370
    18
100
AcDbVertex
100
AcDb2dVertex
 10
5.72052001953125
 20
-1.490119086371528
 30
0.0
  0
VERTEX
  5
6CE
330
6CC
100
AcDbEntity
  8
Layer 1
 62
   250
370
    18
100
AcDbVertex
100
AcDb2dVertex
 10
8.17489963107639
 20
-1.490119086371528
 30
0.0
  0
SEQEND
  5
6CF
330
6CC
100
AcDbEntity
  8
Layer 1
370
    18
  0
POLYLINE
  5
6D0
330
4B4
100
AcDbEntity
  8
Layer 1
 62
   250
370
    18
100
AcDb2dPolyline
 66
     1
 10
0.0
 20
0.0
 30
0.0
  0
VERTEX
  5
6D1
330
6D0
100
AcDbEntity
  8
Layer 1
 62
   250
370
    18
100
AcDbVertex
100
AcDb2dVertex
 10
5.153069390190972
 20
-1.490119086371528
 30
0.0
  0
VERTEX
  5
6D2
330
6D0
100
AcDbEntity
  8
Layer 1
 62
   250
370
    18
100
AcDbVertex
100
AcDb2dVertex
 10
5.594204372829861
 20
-1.490119086371528
 30
0.0
  0
SEQEND
  5
6D3
330
6D0
100
AcDbEntity
  8
Layer 1
370
    18
  0
POLYLINE
  5
6D4
330
4B4
100
AcDbEntity
  8
Layer 1
 62
   250
370
    18
100
AcDb2dPolyline
 66
     1
 10
0.0
 20
0.0
 30
0.0
  0
VERTEX
  5
6D5
330
6D4
100
AcDbEntity
  8
Layer 1
 62
   250
370
    18
100
AcDbVertex
100
AcDb2dVertex
 10
8.29989963107639
 20
-1.490119086371528
 30
0.0
  0
VERTEX
  5
6D6
330
6D4
100
AcDbEntity
  8
Layer 1
 62
   250
370
    18
100
AcDbVertex
100
AcDb2dVertex
 10
8.741034613715277
 20
-1.490119086371528
 30
0.0
  0
SEQEND
  5
6D7
330
6D4
100
AcDbEntity
  8
Layer 1
370
    18
  0
INSERT
  5
6D9
330
4B4
100
AcDbEntity
  8
Layer 1
100
AcDbBlockReference
  2
block 50
 10
0.0
 20
0.0
 30
0.0
  0
POLYLINE
  5
6E8
330
4B4
100
AcDbEntity
  8
Layer 1
 62
   250
370
    18
100
AcDb2dPolyline
 66
     1
 10
0.0
 20
0.0
 30
0.0
  0
VERTEX
  5
6E9
330
6E8
100
AcDbEntity
  8
Layer 1
 62
   250
370
    18
100
AcDbVertex
100
AcDb2dVertex
 10
5.72052001953125
 20
-1.351230197482639
 30
0.0
  0
VERTEX
  5
6EA
330
6E8
100
AcDbEntity
  8
Layer 1
 62
   250
370
    18
100
AcDbVertex
100
AcDb2dVertex
 10
8.17489963107639
 20
-1.351230197482639
 30
0.0
  0
SEQEND
  5
6EB
330
6E8
100
AcDbEntity
  8
Layer 1
370
    18
  0
POLYLINE
  5
6EC
330
4B4
100
AcDbEntity
  8
Layer 1
 62
   250
370
    18
100
AcDb2dPolyline
 66
     1
 10
0.0
 20
0.0
 30
0.0
  0
VERTEX
  5
6ED
330
6EC
100
AcDbEntity
  8
Layer 1
 62
   250
370
    18
100
AcDbVertex
100
AcDb2dVertex
 10
5.153069390190972
 20
-1.351230197482639
 30
0.0
  0
VERTEX
  5
6EE
330
6EC
100
AcDbEntity
  8
Layer 1
 62
   250
370
    18
100
AcDbVertex
100
AcDb2dVertex
 10
5.594204372829861
 20
-1.351230197482639
 30
0.0
  0
SEQEND
  5
6EF
330
6EC
100
AcDbEntity
  8
Layer 1
370
    18
  0
POLYLINE
  5
6F0
330
4B4
100
AcDbEntity
  8
Layer 1
 62
   250
370
    18
100
AcDb2dPolyline
 66
     1
 10
0.0
 20
0.0
 30
0.0
  0
VERTEX
  5
6F1
330
6F0
100
AcDbEntity
  8
Layer 1
 62
   250
370
    18
100
AcDbVertex
100
AcDb2dVertex
 10
8.29989963107639
 20
-1.351230197482639
 30
0.0
  0
VERTEX
  5
6F2
330
6F0
100
AcDbEntity
  8
Layer 1
 62
   250
370
    18
100
AcDbVertex
100
AcDb2dVertex
 10
8.741034613715277
 20
-1.351230197482639
 30
0.0
  0
SEQEND
  5
6F3
330
6F0
100
AcDbEntity
  8
Layer 1
370
    18
  0
INSERT
  5
6F5
330
4B4
100
AcDbEntity
  8
Layer 1
100
AcDbBlockReference
  2
block 51
 10
0.0
 20
0.0
 30
0.0
  0
POLYLINE
  5
704
330
4B4
100
AcDbEntity
  8
Layer 1
 62
   250
370
    18
100
AcDb2dPolyline
 66
     1
 10
0.0
 20
0.0
 30
0.0
  0
VERTEX
  5
705
330
704
100
AcDbEntity
  8
Layer 1
 62
   250
370
    18
100
AcDbVertex
100
AcDb2dVertex
 10
5.72052001953125
 20
-1.21234130859375
 30
0.0
  0
VERTEX
  5
706
330
704
100
AcDbEntity
  8
Layer 1
 62
   250
370
    18
100
AcDbVertex
100
AcDb2dVertex
 10
8.17489963107639
 20
-1.21234130859375
 30
0.0
  0
SEQEND
  5
707
330
704
100
AcDbEntity
  8
Layer 1
370
    18
  0
POLYLINE
  5
708
330
4B4
100
AcDbEntity
  8
Layer 1
 62
   250
370
    18
100
AcDb2dPolyline
 66
     1
 10
0.0
 20
0.0
 30
0.0
  0
VERTEX
  5
709
330
708
100
AcDbEntity
  8
Layer 1
 62
   250
370
    18
100
AcDbVertex
100
AcDb2dVertex
 10
5.153069390190972
 20
-1.21234130859375
 30
0.0
  0
VERTEX
  5
70A
330
708
100
AcDbEntity
  8
Layer 1
 62
   250
370
    18
100
AcDbVertex
100
AcDb2dVertex
 10
5.594204372829861
 20
-1.21234130859375
 30
0.0
  0
SEQEND
  5
70B
330
708
100
AcDbEntity
  8
Layer 1
370
    18
  0
POLYLINE
  5
70C
330
4B4
100
AcDbEntity
  8
Layer 1
 62
   250
370
    18
100
AcDb2dPolyline
 66
     1
 10
0.0
 20
0.0
 30
0.0
  0
VERTEX
  5
70D
330
70C
100
AcDbEntity
  8
Layer 1
 62
   250
370
    18
100
AcDbVertex
100
AcDb2dVertex
 10
8.29989963107639
 20
-1.21234130859375
 30
0.0
  0
VERTEX
  5
70E
330
70C
100
AcDbEntity
  8
Layer 1
 62
   250
370
    18
100
AcDbVertex
100
AcDb2dVertex
 10
8.741034613715277
 20
-1.21234130859375
 30
0.0
  0
SEQEND
  5
70F
330
70C
100
AcDbEntity
  8
Layer 1
370
    18
  0
INSERT
  5
711
330
4B4
100
AcDbEntity
  8
Layer 1
100
AcDbBlockReference
  2
block 52
 10
0.0
 20
0.0
 30
0.0
  0
POLYLINE
  5
720
330
4B4
100
AcDbEntity
  8
Layer 1
 62
   250
370
    18
100
AcDb2dPolyline
 66
     1
 10
0.0
 20
0.0
 30
0.0
  0
VERTEX
  5
721
330
720
100
AcDbEntity
  8
Layer 1
 62
   250
370
    18
100
AcDbVertex
100
AcDb2dVertex
 10
5.72052001953125
 20
-1.073452419704861
 30
0.0
  0
VERTEX
  5
722
330
720
100
AcDbEntity
  8
Layer 1
 62
   250
370
    18
100
AcDbVertex
100
AcDb2dVertex
 10
8.17489963107639
 20
-1.073452419704861
 30
0.0
  0
SEQEND
  5
723
330
720
100
AcDbEntity
  8
Layer 1
370
    18
  0
POLYLINE
  5
724
330
4B4
100
AcDbEntity
  8
Layer 1
 62
   250
370
    18
100
AcDb2dPolyline
 66
     1
 10
0.0
 20
0.0
 30
0.0
  0
VERTEX
  5
725
330
724
100
AcDbEntity
  8
Layer 1
 62
   250
370
    18
100
AcDbVertex
100
AcDb2dVertex
 10
5.153069390190972
 20
-1.073452419704861
 30
0.0
  0
VERTEX
  5
726
330
724
100
AcDbEntity
  8
Layer 1
 62
   250
370
    18
100
AcDbVertex
100
AcDb2dVertex
 10
5.594204372829861
 20
-1.073452419704861
 30
0.0
  0
SEQEND
  5
727
330
724
100
AcDbEntity
  8
Layer 1
370
    18
  0
POLYLINE
  5
728
330
4B4
100
AcDbEntity
  8
Layer 1
 62
   250
370
    18
100
AcDb2dPolyline
 66
     1
 10
0.0
 20
0.0
 30
0.0
  0
VERTEX
  5
729
330
728
100
AcDbEntity
  8
Layer 1
 62
   250
370
    18
100
AcDbVertex
100
AcDb2dVertex
 10
8.29989963107639
 20
-1.073452419704861
 30
0.0
  0
VERTEX
  5
72A
330
728
100
AcDbEntity
  8
Layer 1
 62
   250
370
    18
100
AcDbVertex
100
AcDb2dVertex
 10
8.741034613715277
 20
-1.073452419704861
 30
0.0
  0
SEQEND
  5
72B
330
728
100
AcDbEntity
  8
Layer 1
370
    18
  0
INSERT
  5
72D
330
4B4
100
AcDbEntity
  8
Layer 1
100
AcDbBlockReference
  2
block 53
 10
0.0
 20
0.0
 30
0.0
  0
POLYLINE
  5
73C
330
4B4
100
AcDbEntity
  8
Layer 1
 62
   250
370
    18
100
AcDb2dPolyline
 66
     1
 10
0.0
 20
0.0
 30
0.0
  0
VERTEX
  5
73D
330
73C
100
AcDbEntity
  8
Layer 1
 62
   250
370
    18
100
AcDbVertex
100
AcDb2dVertex
 10
5.72052001953125
 20
-0.9345635308159722
 30
0.0
  0
VERTEX
  5
73E
330
73C
100
AcDbEntity
  8
Layer 1
 62
   250
370
    18
100
AcDbVertex
100
AcDb2dVertex
 10
8.17489963107639
 20
-0.9345635308159722
 30
0.0
  0
SEQEND
  5
73F
330
73C
100
AcDbEntity
  8
Layer 1
370
    18
  0
POLYLINE
  5
740
330
4B4
100
AcDbEntity
  8
Layer 1
 62
   250
370
    18
100
AcDb2dPolyline
 66
     1
 10
0.0
 20
0.0
 30
0.0
  0
VERTEX
  5
741
330
740
100
AcDbEntity
  8
Layer 1
 62
   250
370
    18
100
AcDbVertex
100
AcDb2dVertex
 10
5.153069390190972
 20
-0.9345635308159722
 30
0.0
  0
VERTEX
  5
742
330
740
100
AcDbEntity
  8
Layer 1
 62
   250
370
    18
100
AcDbVertex
100
AcDb2dVertex
 10
5.594204372829861
 20
-0.9345635308159722
 30
0.0
  0
SEQEND
  5
743
330
740
100
AcDbEntity
  8
Layer 1
370
    18
  0
POLYLINE
  5
744
330
4B4
100
AcDbEntity
  8
Layer 1
 62
   250
370
    18
100
AcDb2dPolyline
 66
     1
 10
0.0
 20
0.0
 30
0.0
  0
VERTEX
  5
745
330
744
100
AcDbEntity
  8
Layer 1
 62
   250
370
    18
100
AcDbVertex
100
AcDb2dVertex
 10
8.29989963107639
 20
-0.9345635308159722
 30
0.0
  0
VERTEX
  5
746
330
744
100
AcDbEntity
  8
Layer 1
 62
   250
370
    18
100
AcDbVertex
100
AcDb2dVertex
 10
8.741034613715277
 20
-0.9345635308159722
 30
0.0
  0
SEQEND
  5
747
330
744
100
AcDbEntity
  8
Layer 1
370
    18
  0
INSERT
  5
749
330
4B4
100
AcDbEntity
  8
Layer 1
100
AcDbBlockReference
  2
block 54
 10
0.0
 20
0.0
 30
0.0
  0
POLYLINE
  5
758
330
4B4
100
AcDbEntity
  8
Layer 1
 62
   250
370
    18
100
AcDb2dPolyline
 66
     1
 10
0.0
 20
0.0
 30
0.0
  0
VERTEX
  5
759
330
758
100
AcDbEntity
  8
Layer 1
 62
   250
370
    18
100
AcDbVertex
100
AcDb2dVertex
 10
5.72052001953125
 20
-0.7956746419270833
 30
0.0
  0
VERTEX
  5
75A
330
758
100
AcDbEntity
  8
Layer 1
 62
   250
370
    18
100
AcDbVertex
100
AcDb2dVertex
 10
8.17489963107639
 20
-0.7956746419270833
 30
0.0
  0
SEQEND
  5
75B
330
758
100
AcDbEntity
  8
Layer 1
370
    18
  0
POLYLINE
  5
75C
330
4B4
100
AcDbEntity
  8
Layer 1
 62
   250
370
    18
100
AcDb2dPolyline
 66
     1
 10
0.0
 20
0.0
 30
0.0
  0
VERTEX
  5
75D
330
75C
100
AcDbEntity
  8
Layer 1
 62
   250
370
    18
100
AcDbVertex
100
AcDb2dVertex
 10
5.153069390190972
 20
-0.7956746419270833
 30
0.0
  0
VERTEX
  5
75E
330
75C
100
AcDbEntity
  8
Layer 1
 62
   250
370
    18
100
AcDbVertex
100
AcDb2dVertex
 10
5.594204372829861
 20
-0.7956746419270833
 30
0.0
  0
SEQEND
  5
75F
330
75C
100
AcDbEntity
  8
Layer 1
370
    18
  0
POLYLINE
  5
760
330
4B4
100
AcDbEntity
  8
Layer 1
 62
   250
370
    18
100
AcDb2dPolyline
 66
     1
 10
0.0
 20
0.0
 30
0.0
  0
VERTEX
  5
761
330
760
100
AcDbEntity
  8
Layer 1
 62
   250
370
    18
100
AcDbVertex
100
AcDb2dVertex
 10
8.29989963107639
 20
-0.7956746419270833
 30
0.0
  0
VERTEX
  5
762
330
760
100
AcDbEntity
  8
Layer 1
 62
   250
370
    18
100
AcDbVertex
100
AcDb2dVertex
 10
8.741034613715277
 20
-0.7956746419270833
 30
0.0
  0
SEQEND
  5
763
330
760
100
AcDbEntity
  8
Layer 1
370
    18
  0
INSERT
  5
765
330
4B4
100
AcDbEntity
  8
Layer 1
100
AcDbBlockReference
  2
block 55
 10
0.0
 20
0.0
 30
0.0
  0
POLYLINE
  5
774
330
4B4
100
AcDbEntity
  8
Layer 1
 62
   250
370
    18
100
AcDb2dPolyline
 66
     1
 10
0.0
 20
0.0
 30
0.0
  0
VERTEX
  5
775
330
774
100
AcDbEntity
  8
Layer 1
 62
   250
370
    18
100
AcDbVertex
100
AcDb2dVertex
 10
5.72052001953125
 20
-0.6567857530381944
 30
0.0
  0
VERTEX
  5
776
330
774
100
AcDbEntity
  8
Layer 1
 62
   250
370
    18
100
AcDbVertex
100
AcDb2dVertex
 10
8.17489963107639
 20
-0.6567857530381944
 30
0.0
  0
SEQEND
  5
777
330
774
100
AcDbEntity
  8
Layer 1
370
    18
  0
POLYLINE
  5
778
330
4B4
100
AcDbEntity
  8
Layer 1
 62
   250
370
    18
100
AcDb2dPolyline
 66
     1
 10
0.0
 20
0.0
 30
0.0
  0
VERTEX
  5
779
330
778
100
AcDbEntity
  8
Layer 1
 62
   250
370
    18
100
AcDbVertex
100
AcDb2dVertex
 10
5.153069390190972
 20
-0.6567857530381944
 30
0.0
  0
VERTEX
  5
77A
330
778
100
AcDbEntity
  8
Layer 1
 62
   250
370
    18
100
AcDbVertex
100
AcDb2dVertex
 10
5.594204372829861
 20
-0.6567857530381944
 30
0.0
  0
SEQEND
  5
77B
330
778
100
AcDbEntity
  8
Layer 1
370
    18
  0
POLYLINE
  5
77C
330
4B4
100
AcDbEntity
  8
Layer 1
 62
   250
370
    18
100
AcDb2dPolyline
 66
     1
 10
0.0
 20
0.0
 30
0.0
  0
VERTEX
  5
77D
330
77C
100
AcDbEntity
  8
Layer 1
 62
   250
370
    18
100
AcDbVertex
100
AcDb2dVertex
 10
8.29989963107639
 20
-0.6567857530381944
 30
0.0
  0
VERTEX
  5
77E
330
77C
100
AcDbEntity
  8
Layer 1
 62
   250
370
    18
100
AcDbVertex
100
AcDb2dVertex
 10
8.741034613715277
 20
-0.6567857530381944
 30
0.0
  0
SEQEND
  5
77F
330
77C
100
AcDbEntity
  8
Layer 1
370
    18
  0
ENDBLK
  5
4B7
330
4B4
100
AcDbEntity
  8
0
100
AcDbBlockEnd
  0
BLOCK
  5
4C6
330
4C4
100
AcDbEntity
  8
0
100
AcDbBlockBegin
  2
block 31
 70
     0
 71
     0
 10
0.0
 20
0.0
 30
0.0
  3
block 31
  1

  0
POLYLINE
  5
4C8
330
4C4
100
AcDbEntity
  8
Layer 1
 62
   250
370
    18
100
AcDb2dPolyline
 66
     1
 10
0.0
 20
0.0
 30
0.0
  0
VERTEX
  5
4C9
330
4C8
100
AcDbEntity
  8
Layer 1
 62
   250
370
    18
100
AcDbVertex
100
AcDb2dVertex
 10
5.153069390190972
 20
-4.059563530815972
 30
0.0
  0
VERTEX
  5
4CA
330
4C8
100
AcDbEntity
  8
Layer 1
 62
   250
370
    18
100
AcDbVertex
100
AcDb2dVertex
 10
6.327006022135416
 20
-4.059563530815972
 30
0.0
  0
SEQEND
  5
4CB
330
4C8
100
AcDbEntity
  8
Layer 1
370
    18
  0
POLYLINE
  5
4CC
330
4C4
100
AcDbEntity
  8
Layer 1
 62
   250
370
    18
100
AcDb2dPolyline
 66
     1
 10
0.0
 20
0.0
 30
0.0
  0
VERTEX
  5
4CD
330
4CC
100
AcDbEntity
  8
Layer 1
 62
   250
370
    18
100
AcDbVertex
100
AcDb2dVertex
 10
6.452006022135416
 20
-4.059563530815972
 30
0.0
  0
VERTEX
  5
4CE
330
4CC
100
AcDbEntity
  8
Layer 1
 62
   250
370
    18
100
AcDbVertex
100
AcDb2dVertex
 10
7.452006022135416
 20
-4.059563530815972
 30
0.0
  0
SEQEND
  5
4CF
330
4CC
100
AcDbEntity
  8
Layer 1
370
    18
  0
POLYLINE
  5
4D0
330
4C4
100
AcDbEntity
  8
Layer 1
 62
   250
370
    18
100
AcDb2dPolyline
 66
     1
 10
0.0
 20
0.0
 30
0.0
  0
VERTEX
  5
4D1
330
4D0
100
AcDbEntity
  8
Layer 1
 62
   250
370
    18
100
AcDbVertex
100
AcDb2dVertex
 10
7.577006022135416
 20
-4.059563530815972
 30
0.0
  0
VERTEX
  5
4D2
330
4D0
100
AcDbEntity
  8
Layer 1
 62
   250
370
    18
100
AcDbVertex
100
AcDb2dVertex
 10
8.741034613715277
 20
-4.059563530815972
 30
0.0
  0
SEQEND
  5
4D3
330
4D0
100
AcDbEntity
  8
Layer 1
370
    18
  0
ENDBLK
  5
4C7
330
4C4
100
AcDbEntity
  8
0
100
AcDbBlockEnd
  0
BLOCK
  5
4E2
330
4E0
100
AcDbEntity
  8
0
100
AcDbBlockBegin
  2
block 32
 70
     0
 71
     0
 10
0.0
 20
0.0
 30
0.0
  3
block 32
  1

  0
POLYLINE
  5
4E4
330
4E0
100
AcDbEntity
  8
Layer 1
 62
   250
370
    18
100
AcDb2dPolyline
 66
     1
 10
0.0
 20
0.0
 30
0.0
  0
VERTEX
  5
4E5
330
4E4
100
AcDbEntity
  8
Layer 1
 62
   250
370
    18
100
AcDbVertex
100
AcDb2dVertex
 10
5.153069390190972
 20
-3.920674641927083
 30
0.0
  0
VERTEX
  5
4E6
330
4E4
100
AcDbEntity
  8
Layer 1
 62
   250
370
    18
100
AcDbVertex
100
AcDb2dVertex
 10
6.327006022135416
 20
-3.920674641927083
 30
0.0
  0
SEQEND
  5
4E7
330
4E4
100
AcDbEntity
  8
Layer 1
370
    18
  0
POLYLINE
  5
4E8
330
4E0
100
AcDbEntity
  8
Layer 1
 62
   250
370
    18
100
AcDb2dPolyline
 66
     1
 10
0.0
 20
0.0
 30
0.0
  0
VERTEX
  5
4E9
330
4E8
100
AcDbEntity
  8
Layer 1
 62
   250
370
    18
100
AcDbVertex
100
AcDb2dVertex
 10
6.452006022135416
 20
-3.920674641927083
 30
0.0
  0
VERTEX
  5
4EA
330
4E8
100
AcDbEntity
  8
Layer 1
 62
   250
370
    18
100
AcDbVertex
100
AcDb2dVertex
 10
7.452006022135416
 20
-3.920674641927083
 30
0.0
  0
SEQEND
  5
4EB
330
4E8
100
AcDbEntity
  8
Layer 1
370
    18
  0
POLYLINE
  5
4EC
330
4E0
100
AcDbEntity
  8
Layer 1
 62
   250
370
    18
100
AcDb2dPolyline
 66
     1
 10
0.0
 20
0.0
 30
0.0
  0
VERTEX
  5
4ED
330
4EC
100
AcDbEntity
  8
Layer 1
 62
   250
370
    18
100
AcDbVertex
100
AcDb2dVertex
 10
7.577006022135416
 20
-3.920674641927083
 30
0.0
  0
VERTEX
  5
4EE
330
4EC
100
AcDbEntity
  8
Layer 1
 62
   250
370
    18
100
AcDbVertex
100
AcDb2dVertex
 10
8.741034613715277
 20
-3.920674641927083
 30
0.0
  0
SEQEND
  5
4EF
330
4EC
100
AcDbEntity
  8
Layer 1
370
    18
  0
ENDBLK
  5
4E3
330
4E0
100
AcDbEntity
  8
0
100
AcDbBlockEnd
  0
BLOCK
  5
4FE
330
4FC
100
AcDbEntity
  8
0
100
AcDbBlockBegin
  2
block 33
 70
     0
 71
     0
 10
0.0
 20
0.0
 30
0.0
  3
block 33
  1

  0
POLYLINE
  5
500
330
4FC
100
AcDbEntity
  8
Layer 1
 62
   250
370
    18
100
AcDb2dPolyline
 66
     1
 10
0.0
 20
0.0
 30
0.0
  0
VERTEX
  5
501
330
500
100
AcDbEntity
  8
Layer 1
 62
   250
370
    18
100
AcDbVertex
100
AcDb2dVertex
 10
5.153069390190972
 20
-3.781785753038194
 30
0.0
  0
VERTEX
  5
502
330
500
100
AcDbEntity
  8
Layer 1
 62
   250
370
    18
100
AcDbVertex
100
AcDb2dVertex
 10
6.327006022135416
 20
-3.781785753038194
 30
0.0
  0
SEQEND
  5
503
330
500
100
AcDbEntity
  8
Layer 1
370
    18
  0
POLYLINE
  5
504
330
4FC
100
AcDbEntity
  8
Layer 1
 62
   250
370
    18
100
AcDb2dPolyline
 66
     1
 10
0.0
 20
0.0
 30
0.0
  0
VERTEX
  5
505
330
504
100
AcDbEntity
  8
Layer 1
 62
   250
370
    18
100
AcDbVertex
100
AcDb2dVertex
 10
6.452006022135416
 20
-3.781785753038194
 30
0.0
  0
VERTEX
  5
506
330
504
100
AcDbEntity
  8
Layer 1
 62
   250
370
    18
100
AcDbVertex
100
AcDb2dVertex
 10
7.452006022135416
 20
-3.781785753038194
 30
0.0
  0
SEQEND
  5
507
330
504
100
AcDbEntity
  8
Layer 1
370
    18
  0
POLYLINE
  5
508
330
4FC
100
AcDbEntity
  8
Layer 1
 62
   250
370
    18
100
AcDb2dPolyline
 66
     1
 10
0.0
 20
0.0
 30
0.0
  0
VERTEX
  5
509
330
508
100
AcDbEntity
  8
Layer 1
 62
   250
370
    18
100
AcDbVertex
100
AcDb2dVertex
 10
7.577006022135416
 20
-3.781785753038194
 30
0.0
  0
VERTEX
  5
50A
330
508
100
AcDbEntity
  8
Layer 1
 62
   250
370
    18
100
AcDbVertex
100
AcDb2dVertex
 10
8.741034613715277
 20
-3.781785753038194
 30
0.0
  0
SEQEND
  5
50B
330
508
100
AcDbEntity
  8
Layer 1
370
    18
  0
ENDBLK
  5
4FF
330
4FC
100
AcDbEntity
  8
0
100
AcDbBlockEnd
  0
BLOCK
  5
51A
330
518
100
AcDbEntity
  8
0
100
AcDbBlockBegin
  2
block 34
 70
     0
 71
     0
 10
0.0
 20
0.0
 30
0.0
  3
block 34
  1

  0
POLYLINE
  5
51C
330
518
100
AcDbEntity
  8
Layer 1
 62
   250
370
    18
100
AcDb2dPolyline
 66
     1
 10
0.0
 20
0.0
 30
0.0
  0
VERTEX
  5
51D
330
51C
100
AcDbEntity
  8
Layer 1
 62
   250
370
    18
100
AcDbVertex
100
AcDb2dVertex
 10
5.153069390190972
 20
-3.642896864149305
 30
0.0
  0
VERTEX
  5
51E
330
51C
100
AcDbEntity
  8
Layer 1
 62
   250
370
    18
100
AcDbVertex
100
AcDb2dVertex
 10
6.327006022135416
 20
-3.642896864149305
 30
0.0
  0
SEQEND
  5
51F
330
51C
100
AcDbEntity
  8
Layer 1
370
    18
  0
POLYLINE
  5
520
330
518
100
AcDbEntity
  8
Layer 1
 62
   250
370
    18
100
AcDb2dPolyline
 66
     1
 10
0.0
 20
0.0
 30
0.0
  0
VERTEX
  5
521
330
520
100
AcDbEntity
  8
Layer 1
 62
   250
370
    18
100
AcDbVertex
100
AcDb2dVertex
 10
6.452006022135416
 20
-3.642896864149305
 30
0.0
  0
VERTEX
  5
522
330
520
100
AcDbEntity
  8
Layer 1
 62
   250
370
    18
100
AcDbVertex
100
AcDb2dVertex
 10
7.452006022135416
 20
-3.642896864149305
 30
0.0
  0
SEQEND
  5
523
330
520
100
AcDbEntity
  8
Layer 1
370
    18
  0
POLYLINE
  5
524
330
518
100
AcDbEntity
  8
Layer 1
 62
   250
370
    18
100
AcDb2dPolyline
 66
     1
 10
0.0
 20
0.0
 30
0.0
  0
VERTEX
  5
525
330
524
100
AcDbEntity
  8
Layer 1
 62
   250
370
    18
100
AcDbVertex
100
AcDb2dVertex
 10
7.577006022135416
 20
-3.642896864149305
 30
0.0
  0
VERTEX
  5
526
330
524
100
AcDbEntity
  8
Layer 1
 62
   250
370
    18
100
AcDbVertex
100
AcDb2dVertex
 10
8.741034613715277
 20
-3.642896864149305
 30
0.0
  0
SEQEND
  5
527
330
524
100
AcDbEntity
  8
Layer 1
370
    18
  0
ENDBLK
  5
51B
330
518
100
AcDbEntity
  8
0
100
AcDbBlockEnd
  0
BLOCK
  5
536
330
534
100
AcDbEntity
  8
0
100
AcDbBlockBegin
  2
block 35
 70
     0
 71
     0
 10
0.0
 20
0.0
 30
0.0
  3
block 35
  1

  0
POLYLINE
  5
538
330
534
100
AcDbEntity
  8
Layer 1
 62
   250
370
    18
100
AcDb2dPolyline
 66
     1
 10
0.0
 20
0.0
 30
0.0
  0
VERTEX
  5
539
330
538
100
AcDbEntity
  8
Layer 1
 62
   250
370
    18
100
AcDbVertex
100
AcDb2dVertex
 10
5.153069390190972
 20
-3.504007975260417
 30
0.0
  0
VERTEX
  5
53A
330
538
100
AcDbEntity
  8
Layer 1
 62
   250
370
    18
100
AcDbVertex
100
AcDb2dVertex
 10
6.327006022135416
 20
-3.504007975260417
 30
0.0
  0
SEQEND
  5
53B
330
538
100
AcDbEntity
  8
Layer 1
370
    18
  0
POLYLINE
  5
53C
330
534
100
AcDbEntity
  8
Layer 1
 62
   250
370
    18
100
AcDb2dPolyline
 66
     1
 10
0.0
 20
0.0
 30
0.0
  0
VERTEX
  5
53D
330
53C
100
AcDbEntity
  8
Layer 1
 62
   250
370
    18
100
AcDbVertex
100
AcDb2dVertex
 10
6.452006022135416
 20
-3.504007975260417
 30
0.0
  0
VERTEX
  5
53E
330
53C
100
AcDbEntity
  8
Layer 1
 62
   250
370
    18
100
AcDbVertex
100
AcDb2dVertex
 10
7.452006022135416
 20
-3.504007975260417
 30
0.0
  0
SEQEND
  5
53F
330
53C
100
AcDbEntity
  8
Layer 1
370
    18
  0
POLYLINE
  5
540
330
534
100
AcDbEntity
  8
Layer 1
 62
   250
370
    18
100
AcDb2dPolyline
 66
     1
 10
0.0
 20
0.0
 30
0.0
  0
VERTEX
  5
541
330
540
100
AcDbEntity
  8
Layer 1
 62
   250
370
    18
100
AcDbVertex
100
AcDb2dVertex
 10
7.577006022135416
 20
-3.504007975260417
 30
0.0
  0
VERTEX
  5
542
330
540
100
AcDbEntity
  8
Layer 1
 62
   250
370
    18
100
AcDbVertex
100
AcDb2dVertex
 10
8.741034613715277
 20
-3.504007975260417
 30
0.0
  0
SEQEND
  5
543
330
540
100
AcDbEntity
  8
Layer 1
370
    18
  0
ENDBLK
  5
537
330
534
100
AcDbEntity
  8
0
100
AcDbBlockEnd
  0
BLOCK
  5
552
330
550
100
AcDbEntity
  8
0
100
AcDbBlockBegin
  2
block 36
 70
     0
 71
     0
 10
0.0
 20
0.0
 30
0.0
  3
block 36
  1

  0
POLYLINE
  5
554
330
550
100
AcDbEntity
  8
Layer 1
 62
   250
370
    18
100
AcDb2dPolyline
 66
     1
 10
0.0
 20
0.0
 30
0.0
  0
VERTEX
  5
555
330
554
100
AcDbEntity
  8
Layer 1
 62
   250
370
    18
100
AcDbVertex
100
AcDb2dVertex
 10
5.153069390190972
 20
-3.365119086371528
 30
0.0
  0
VERTEX
  5
556
330
554
100
AcDbEntity
  8
Layer 1
 62
   250
370
    18
100
AcDbVertex
100
AcDb2dVertex
 10
6.327006022135416
 20
-3.365119086371528
 30
0.0
  0
SEQEND
  5
557
330
554
100
AcDbEntity
  8
Layer 1
370
    18
  0
POLYLINE
  5
558
330
550
100
AcDbEntity
  8
Layer 1
 62
   250
370
    18
100
AcDb2dPolyline
 66
     1
 10
0.0
 20
0.0
 30
0.0
  0
VERTEX
  5
559
330
558
100
AcDbEntity
  8
Layer 1
 62
   250
370
    18
100
AcDbVertex
100
AcDb2dVertex
 10
6.452006022135416
 20
-3.365119086371528
 30
0.0
  0
VERTEX
  5
55A
330
558
100
AcDbEntity
  8
Layer 1
 62
   250
370
    18
100
AcDbVertex
100
AcDb2dVertex
 10
7.452006022135416
 20
-3.365119086371528
 30
0.0
  0
SEQEND
  5
55B
330
558
100
AcDbEntity
  8
Layer 1
370
    18
  0
POLYLINE
  5
55C
330
550
100
AcDbEntity
  8
Layer 1
 62
   250
370
    18
100
AcDb2dPolyline
 66
     1
 10
0.0
 20
0.0
 30
0.0
  0
VERTEX
  5
55D
330
55C
100
AcDbEntity
  8
Layer 1
 62
   250
370
    18
100
AcDbVertex
100
AcDb2dVertex
 10
7.577006022135416
 20
-3.365119086371528
 30
0.0
  0
VERTEX
  5
55E
330
55C
100
AcDbEntity
  8
Layer 1
 62
   250
370
    18
100
AcDbVertex
100
AcDb2dVertex
 10
8.741034613715277
 20
-3.365119086371528
 30
0.0
  0
SEQEND
  5
55F
330
55C
100
AcDbEntity
  8
Layer 1
370
    18
  0
ENDBLK
  5
553
330
550
100
AcDbEntity
  8
0
100
AcDbBlockEnd
  0
BLOCK
  5
56E
330
56C
100
AcDbEntity
  8
0
100
AcDbBlockBegin
  2
block 37
 70
     0
 71
     0
 10
0.0
 20
0.0
 30
0.0
  3
block 37
  1

  0
POLYLINE
  5
570
330
56C
100
AcDbEntity
  8
Layer 1
 62
   250
370
    18
100
AcDb2dPolyline
 66
     1
 10
0.0
 20
0.0
 30
0.0
  0
VERTEX
  5
571
330
570
100
AcDbEntity
  8
Layer 1
 62
   250
370
    18
100
AcDbVertex
100
AcDb2dVertex
 10
5.153069390190972
 20
-3.226230197482639
 30
0.0
  0
VERTEX
  5
572
330
570
100
AcDbEntity
  8
Layer 1
 62
   250
370
    18
100
AcDbVertex
100
AcDb2dVertex
 10
6.327006022135416
 20
-3.226230197482639
 30
0.0
  0
SEQEND
  5
573
330
570
100
AcDbEntity
  8
Layer 1
370
    18
  0
POLYLINE
  5
574
330
56C
100
AcDbEntity
  8
Layer 1
 62
   250
370
    18
100
AcDb2dPolyline
 66
     1
 10
0.0
 20
0.0
 30
0.0
  0
VERTEX
  5
575
330
574
100
AcDbEntity
  8
Layer 1
 62
   250
370
    18
100
AcDbVertex
100
AcDb2dVertex
 10
6.452006022135416
 20
-3.226230197482639
 30
0.0
  0
VERTEX
  5
576
330
574
100
AcDbEntity
  8
Layer 1
 62
   250
370
    18
100
AcDbVertex
100
AcDb2dVertex
 10
7.452006022135416
 20
-3.226230197482639
 30
0.0
  0
SEQEND
  5
577
330
574
100
AcDbEntity
  8
Layer 1
370
    18
  0
POLYLINE
  5
578
330
56C
100
AcDbEntity
  8
Layer 1
 62
   250
370
    18
100
AcDb2dPolyline
 66
     1
 10
0.0
 20
0.0
 30
0.0
  0
VERTEX
  5
579
330
578
100
AcDbEntity
  8
Layer 1
 62
   250
370
    18
100
AcDbVertex
100
AcDb2dVertex
 10
7.577006022135416
 20
-3.226230197482639
 30
0.0
  0
VERTEX
  5
57A
330
578
100
AcDbEntity
  8
Layer 1
 62
   250
370
    18
100
AcDbVertex
100
AcDb2dVertex
 10
8.741034613715277
 20
-3.226230197482639
 30
0.0
  0
SEQEND
  5
57B
330
578
100
AcDbEntity
  8
Layer 1
370
    18
  0
ENDBLK
  5
56F
330
56C
100
AcDbEntity
  8
0
100
AcDbBlockEnd
  0
BLOCK
  5
58A
330
588
100
AcDbEntity
  8
0
100
AcDbBlockBegin
  2
block 38
 70
     0
 71
     0
 10
0.0
 20
0.0
 30
0.0
  3
block 38
  1

  0
POLYLINE
  5
58C
330
588
100
AcDbEntity
  8
Layer 1
 62
   250
370
    18
100
AcDb2dPolyline
 66
     1
 10
0.0
 20
0.0
 30
0.0
  0
VERTEX
  5
58D
330
58C
100
AcDbEntity
  8
Layer 1
 62
   250
370
    18
100
AcDbVertex
100
AcDb2dVertex
 10
5.153069390190972
 20
-3.08734130859375
 30
0.0
  0
VERTEX
  5
58E
330
58C
100
AcDbEntity
  8
Layer 1
 62
   250
370
    18
100
AcDbVertex
100
AcDb2dVertex
 10
6.327006022135416
 20
-3.08734130859375
 30
0.0
  0
SEQEND
  5
58F
330
58C
100
AcDbEntity
  8
Layer 1
370
    18
  0
POLYLINE
  5
590
330
588
100
AcDbEntity
  8
Layer 1
 62
   250
370
    18
100
AcDb2dPolyline
 66
     1
 10
0.0
 20
0.0
 30
0.0
  0
VERTEX
  5
591
330
590
100
AcDbEntity
  8
Layer 1
 62
   250
370
    18
100
AcDbVertex
100
AcDb2dVertex
 10
6.452006022135416
 20
-3.08734130859375
 30
0.0
  0
VERTEX
  5
592
330
590
100
AcDbEntity
  8
Layer 1
 62
   250
370
    18
100
AcDbVertex
100
AcDb2dVertex
 10
7.452006022135416
 20
-3.08734130859375
 30
0.0
  0
SEQEND
  5
593
330
590
100
AcDbEntity
  8
Layer 1
370
    18
  0
POLYLINE
  5
594
330
588
100
AcDbEntity
  8
Layer 1
 62
   250
370
    18
100
AcDb2dPolyline
 66
     1
 10
0.0
 20
0.0
 30
0.0
  0
VERTEX
  5
595
330
594
100
AcDbEntity
  8
Layer 1
 62
   250
370
    18
100
AcDbVertex
100
AcDb2dVertex
 10
7.577006022135416
 20
-3.08734130859375
 30
0.0
  0
VERTEX
  5
596
330
594
100
AcDbEntity
  8
Layer 1
 62
   250
370
    18
100
AcDbVertex
100
AcDb2dVertex
 10
8.741034613715277
 20
-3.08734130859375
 30
0.0
  0
SEQEND
  5
597
330
594
100
AcDbEntity
  8
Layer 1
370
    18
  0
ENDBLK
  5
58B
330
588
100
AcDbEntity
  8
0
100
AcDbBlockEnd
  0
BLOCK
  5
5A6
330
5A4
100
AcDbEntity
  8
0
100
AcDbBlockBegin
  2
block 39
 70
     0
 71
     0
 10
0.0
 20
0.0
 30
0.0
  3
block 39
  1

  0
POLYLINE
  5
5A8
330
5A4
100
AcDbEntity
  8
Layer 1
 62
   250
370
    18
100
AcDb2dPolyline
 66
     1
 10
0.0
 20
0.0
 30
0.0
  0
VERTEX
  5
5A9
330
5A8
100
AcDbEntity
  8
Layer 1
 62
   250
370
    18
100
AcDbVertex
100
AcDb2dVertex
 10
5.153069390190972
 20
-2.948452419704861
 30
0.0
  0
VERTEX
  5
5AA
330
5A8
100
AcDbEntity
  8
Layer 1
 62
   250
370
    18
100
AcDbVertex
100
AcDb2dVertex
 10
6.327006022135416
 20
-2.948452419704861
 30
0.0
  0
SEQEND
  5
5AB
330
5A8
100
AcDbEntity
  8
Layer 1
370
    18
  0
POLYLINE
  5
5AC
330
5A4
100
AcDbEntity
  8
Layer 1
 62
   250
370
    18
100
AcDb2dPolyline
 66
     1
 10
0.0
 20
0.0
 30
0.0
  0
VERTEX
  5
5AD
330
5AC
100
AcDbEntity
  8
Layer 1
 62
   250
370
    18
100
AcDbVertex
100
AcDb2dVertex
 10
6.452006022135416
 20
-2.948452419704861
 30
0.0
  0
VERTEX
  5
5AE
330
5AC
100
AcDbEntity
  8
Layer 1
 62
   250
370
    18
100
AcDbVertex
100
AcDb2dVertex
 10
7.452006022135416
 20
-2.948452419704861
 30
0.0
  0
SEQEND
  5
5AF
330
5AC
100
AcDbEntity
  8
Layer 1
370
    18
  0
POLYLINE
  5
5B0
330
5A4
100
AcDbEntity
  8
Layer 1
 62
   250
370
    18
100
AcDb2dPolyline
 66
     1
 10
0.0
 20
0.0
 30
0.0
  0
VERTEX
  5
5B1
330
5B0
100
AcDbEntity
  8
Layer 1
 62
   250
370
    18
100
AcDbVertex
100
AcDb2dVertex
 10
7.577006022135416
 20
-2.948452419704861
 30
0.0
  0
VERTEX
  5
5B2
330
5B0
100
AcDbEntity
  8
Layer 1
 62
   250
370
    18
100
AcDbVertex
100
AcDb2dVertex
 10
8.741034613715277
 20
-2.948452419704861
 30
0.0
  0
SEQEND
  5
5B3
330
5B0
100
AcDbEntity
  8
Layer 1
370
    18
  0
ENDBLK
  5
5A7
330
5A4
100
AcDbEntity
  8
0
100
AcDbBlockEnd
  0
BLOCK
  5
5C2
330
5C0
100
AcDbEntity
  8
0
100
AcDbBlockBegin
  2
block 40
 70
     0
 71
     0
 10
0.0
 20
0.0
 30
0.0
  3
block 40
  1

  0
POLYLINE
  5
5C4
330
5C0
100
AcDbEntity
  8
Layer 1
 62
   250
370
    18
100
AcDb2dPolyline
 66
     1
 10
0.0
 20
0.0
 30
0.0
  0
VERTEX
  5
5C5
330
5C4
100
AcDbEntity
  8
Layer 1
 62
   250
370
    18
100
AcDbVertex
100
AcDb2dVertex
 10
5.153069390190972
 20
-2.809563530815972
 30
0.0
  0
VERTEX
  5
5C6
330
5C4
100
AcDbEntity
  8
Layer 1
 62
   250
370
    18
100
AcDbVertex
100
AcDb2dVertex
 10
6.327006022135416
 20
-2.809563530815972
 30
0.0
  0
SEQEND
  5
5C7
330
5C4
100
AcDbEntity
  8
Layer 1
370
    18
  0
POLYLINE
  5
5C8
330
5C0
100
AcDbEntity
  8
Layer 1
 62
   250
370
    18
100
AcDb2dPolyline
 66
     1
 10
0.0
 20
0.0
 30
0.0
  0
VERTEX
  5
5C9
330
5C8
100
AcDbEntity
  8
Layer 1
 62
   250
370
    18
100
AcDbVertex
100
AcDb2dVertex
 10
6.452006022135416
 20
-2.809563530815972
 30
0.0
  0
VERTEX
  5
5CA
330
5C8
100
AcDbEntity
  8
Layer 1
 62
   250
370
    18
100
AcDbVertex
100
AcDb2dVertex
 10
7.452006022135416
 20
-2.809563530815972
 30
0.0
  0
SEQEND
  5
5CB
330
5C8
100
AcDbEntity
  8
Layer 1
370
    18
  0
POLYLINE
  5
5CC
330
5C0
100
AcDbEntity
  8
Layer 1
 62
   250
370
    18
100
AcDb2dPolyline
 66
     1
 10
0.0
 20
0.0
 30
0.0
  0
VERTEX
  5
5CD
330
5CC
100
AcDbEntity
  8
Layer 1
 62
   250
370
    18
100
AcDbVertex
100
AcDb2dVertex
 10
7.577006022135416
 20
-2.809563530815972
 30
0.0
  0
VERTEX
  5
5CE
330
5CC
100
AcDbEntity
  8
Layer 1
 62
   250
370
    18
100
AcDbVertex
100
AcDb2dVertex
 10
8.741034613715277
 20
-2.809563530815972
 30
0.0
  0
SEQEND
  5
5CF
330
5CC
100
AcDbEntity
  8
Layer 1
370
    18
  0
ENDBLK
  5
5C3
330
5C0
100
AcDbEntity
  8
0
100
AcDbBlockEnd
  0
BLOCK
  5
5DE
330
5DC
100
AcDbEntity
  8
0
100
AcDbBlockBegin
  2
block 41
 70
     0
 71
     0
 10
0.0
 20
0.0
 30
0.0
  3
block 41
  1

  0
POLYLINE
  5
5E0
330
5DC
100
AcDbEntity
  8
Layer 1
 62
   250
370
    18
100
AcDb2dPolyline
 66
     1
 10
0.0
 20
0.0
 30
0.0
  0
VERTEX
  5
5E1
330
5E0
100
AcDbEntity
  8
Layer 1
 62
   250
370
    18
100
AcDbVertex
100
AcDb2dVertex
 10
5.153069390190972
 20
-2.670674641927083
 30
0.0
  0
VERTEX
  5
5E2
330
5E0
100
AcDbEntity
  8
Layer 1
 62
   250
370
    18
100
AcDbVertex
100
AcDb2dVertex
 10
6.327006022135416
 20
-2.670674641927083
 30
0.0
  0
SEQEND
  5
5E3
330
5E0
100
AcDbEntity
  8
Layer 1
370
    18
  0
POLYLINE
  5
5E4
330
5DC
100
AcDbEntity
  8
Layer 1
 62
   250
370
    18
100
AcDb2dPolyline
 66
     1
 10
0.0
 20
0.0
 30
0.0
  0
VERTEX
  5
5E5
330
5E4
100
AcDbEntity
  8
Layer 1
 62
   250
370
    18
100
AcDbVertex
100
AcDb2dVertex
 10
6.452006022135416
 20
-2.670674641927083
 30
0.0
  0
VERTEX
  5
5E6
330
5E4
100
AcDbEntity
  8
Layer 1
 62
   250
370
    18
100
AcDbVertex
100
AcDb2dVertex
 10
7.452006022135416
 20
-2.670674641927083
 30
0.0
  0
SEQEND
  5
5E7
330
5E4
100
AcDbEntity
  8
Layer 1
370
    18
  0
POLYLINE
  5
5E8
330
5DC
100
AcDbEntity
  8
Layer 1
 62
   250
370
    18
100
AcDb2dPolyline
 66
     1
 10
0.0
 20
0.0
 30
0.0
  0
VERTEX
  5
5E9
330
5E8
100
AcDbEntity
  8
Layer 1
 62
   250
370
    18
100
AcDbVertex
100
AcDb2dVertex
 10
7.577006022135416
 20
-2.670674641927083
 30
0.0
  0
VERTEX
  5
5EA
330
5E8
100
AcDbEntity
  8
Layer 1
 62
   250
370
    18
100
AcDbVertex
100
AcDb2dVertex
 10
8.741034613715277
 20
-2.670674641927083
 30
0.0
  0
SEQEND
  5
5EB
330
5E8
100
AcDbEntity
  8
Layer 1
370
    18
  0
ENDBLK
  5
5DF
330
5DC
100
AcDbEntity
  8
0
100
AcDbBlockEnd
  0
BLOCK
  5
5FA
330
5F8
100
AcDbEntity
  8
0
100
AcDbBlockBegin
  2
block 42
 70
     0
 71
     0
 10
0.0
 20
0.0
 30
0.0
  3
block 42
  1

  0
POLYLINE
  5
5FC
330
5F8
100
AcDbEntity
  8
Layer 1
 62
   250
370
    18
100
AcDb2dPolyline
 66
     1
 10
0.0
 20
0.0
 30
0.0
  0
VERTEX
  5
5FD
330
5FC
100
AcDbEntity
  8
Layer 1
 62
   250
370
    18
100
AcDbVertex
100
AcDb2dVertex
 10
5.153069390190972
 20
-2.531785753038194
 30
0.0
  0
VERTEX
  5
5FE
330
5FC
100
AcDbEntity
  8
Layer 1
 62
   250
370
    18
100
AcDbVertex
100
AcDb2dVertex
 10
6.327006022135416
 20
-2.531785753038194
 30
0.0
  0
SEQEND
  5
5FF
330
5FC
100
AcDbEntity
  8
Layer 1
370
    18
  0
POLYLINE
  5
600
330
5F8
100
AcDbEntity
  8
Layer 1
 62
   250
370
    18
100
AcDb2dPolyline
 66
     1
 10
0.0
 20
0.0
 30
0.0
  0
VERTEX
  5
601
330
600
100
AcDbEntity
  8
Layer 1
 62
   250
370
    18
100
AcDbVertex
100
AcDb2dVertex
 10
6.452006022135416
 20
-2.531785753038194
 30
0.0
  0
VERTEX
  5
602
330
600
100
AcDbEntity
  8
Layer 1
 62
   250
370
    18
100
AcDbVertex
100
AcDb2dVertex
 10
7.452006022135416
 20
-2.531785753038194
 30
0.0
  0
SEQEND
  5
603
330
600
100
AcDbEntity
  8
Layer 1
370
    18
  0
POLYLINE
  5
604
330
5F8
100
AcDbEntity
  8
Layer 1
 62
   250
370
    18
100
AcDb2dPolyline
 66
     1
 10
0.0
 20
0.0
 30
0.0
  0
VERTEX
  5
605
330
604
100
AcDbEntity
  8
Layer 1
 62
   250
370
    18
100
AcDbVertex
100
AcDb2dVertex
 10
7.577006022135416
 20
-2.531785753038194
 30
0.0
  0
VERTEX
  5
606
330
604
100
AcDbEntity
  8
Layer 1
 62
   250
370
    18
100
AcDbVertex
100
AcDb2dVertex
 10
8.741034613715277
 20
-2.531785753038194
 30
0.0
  0
SEQEND
  5
607
330
604
100
AcDbEntity
  8
Layer 1
370
    18
  0
ENDBLK
  5
5FB
330
5F8
100
AcDbEntity
  8
0
100
AcDbBlockEnd
  0
BLOCK
  5
616
330
614
100
AcDbEntity
  8
0
100
AcDbBlockBegin
  2
block 43
 70
     0
 71
     0
 10
0.0
 20
0.0
 30
0.0
  3
block 43
  1

  0
POLYLINE
  5
618
330
614
100
AcDbEntity
  8
Layer 1
 62
   250
370
    18
100
AcDb2dPolyline
 66
     1
 10
0.0
 20
0.0
 30
0.0
  0
VERTEX
  5
619
330
618
100
AcDbEntity
  8
Layer 1
 62
   250
370
    18
100
AcDbVertex
100
AcDb2dVertex
 10
5.153069390190972
 20
-2.392896864149305
 30
0.0
  0
VERTEX
  5
61A
330
618
100
AcDbEntity
  8
Layer 1
 62
   250
370
    18
100
AcDbVertex
100
AcDb2dVertex
 10
6.327006022135416
 20
-2.392896864149305
 30
0.0
  0
SEQEND
  5
61B
330
618
100
AcDbEntity
  8
Layer 1
370
    18
  0
POLYLINE
  5
61C
330
614
100
AcDbEntity
  8
Layer 1
 62
   250
370
    18
100
AcDb2dPolyline
 66
     1
 10
0.0
 20
0.0
 30
0.0
  0
VERTEX
  5
61D
330
61C
100
AcDbEntity
  8
Layer 1
 62
   250
370
    18
100
AcDbVertex
100
AcDb2dVertex
 10
6.452006022135416
 20
-2.392896864149305
 30
0.0
  0
VERTEX
  5
61E
330
61C
100
AcDbEntity
  8
Layer 1
 62
   250
370
    18
100
AcDbVertex
100
AcDb2dVertex
 10
7.452006022135416
 20
-2.392896864149305
 30
0.0
  0
SEQEND
  5
61F
330
61C
100
AcDbEntity
  8
Layer 1
370
    18
  0
POLYLINE
  5
620
330
614
100
AcDbEntity
  8
Layer 1
 62
   250
370
    18
100
AcDb2dPolyline
 66
     1
 10
0.0
 20
0.0
 30
0.0
  0
VERTEX
  5
621
330
620
100
AcDbEntity
  8
Layer 1
 62
   250
370
    18
100
AcDbVertex
100
AcDb2dVertex
 10
7.577006022135416
 20
-2.392896864149305
 30
0.0
  0
VERTEX
  5
622
330
620
100
AcDbEntity
  8
Layer 1
 62
   250
370
    18
100
AcDbVertex
100
AcDb2dVertex
 10
8.741034613715277
 20
-2.392896864149305
 30
0.0
  0
SEQEND
  5
623
330
620
100
AcDbEntity
  8
Layer 1
370
    18
  0
ENDBLK
  5
617
330
614
100
AcDbEntity
  8
0
100
AcDbBlockEnd
  0
BLOCK
  5
632
330
630
100
AcDbEntity
  8
0
100
AcDbBlockBegin
  2
block 44
 70
     0
 71
     0
 10
0.0
 20
0.0
 30
0.0
  3
block 44
  1

  0
POLYLINE
  5
634
330
630
100
AcDbEntity
  8
Layer 1
 62
   250
370
    18
100
AcDb2dPolyline
 66
     1
 10
0.0
 20
0.0
 30
0.0
  0
VERTEX
  5
635
330
634
100
AcDbEntity
  8
Layer 1
 62
   250
370
    18
100
AcDbVertex
100
AcDb2dVertex
 10
5.153069390190972
 20
-2.254007975260417
 30
0.0
  0
VERTEX
  5
636
330
634
100
AcDbEntity
  8
Layer 1
 62
   250
370
    18
100
AcDbVertex
100
AcDb2dVertex
 10
6.327006022135416
 20
-2.254007975260417
 30
0.0
  0
SEQEND
  5
637
330
634
100
AcDbEntity
  8
Layer 1
370
    18
  0
POLYLINE
  5
638
330
630
100
AcDbEntity
  8
Layer 1
 62
   250
370
    18
100
AcDb2dPolyline
 66
     1
 10
0.0
 20
0.0
 30
0.0
  0
VERTEX
  5
639
330
638
100
AcDbEntity
  8
Layer 1
 62
   250
370
    18
100
AcDbVertex
100
AcDb2dVertex
 10
6.452006022135416
 20
-2.254007975260417
 30
0.0
  0
VERTEX
  5
63A
330
638
100
AcDbEntity
  8
Layer 1
 62
   250
370
    18
100
AcDbVertex
100
AcDb2dVertex
 10
7.452006022135416
 20
-2.254007975260417
 30
0.0
  0
SEQEND
  5
63B
330
638
100
AcDbEntity
  8
Layer 1
370
    18
  0
POLYLINE
  5
63C
330
630
100
AcDbEntity
  8
Layer 1
 62
   250
370
    18
100
AcDb2dPolyline
 66
     1
 10
0.0
 20
0.0
 30
0.0
  0
VERTEX
  5
63D
330
63C
100
AcDbEntity
  8
Layer 1
 62
   250
370
    18
100
AcDbVertex
100
AcDb2dVertex
 10
7.577006022135416
 20
-2.254007975260417
 30
0.0
  0
VERTEX
  5
63E
330
63C
100
AcDbEntity
  8
Layer 1
 62
   250
370
    18
100
AcDbVertex
100
AcDb2dVertex
 10
8.741034613715277
 20
-2.254007975260417
 30
0.0
  0
SEQEND
  5
63F
330
63C
100
AcDbEntity
  8
Layer 1
370
    18
  0
ENDBLK
  5
633
330
630
100
AcDbEntity
  8
0
100
AcDbBlockEnd
  0
BLOCK
  5
64E
330
64C
100
AcDbEntity
  8
0
100
AcDbBlockBegin
  2
block 45
 70
     0
 71
     0
 10
0.0
 20
0.0
 30
0.0
  3
block 45
  1

  0
POLYLINE
  5
650
330
64C
100
AcDbEntity
  8
Layer 1
 62
   250
370
    18
100
AcDb2dPolyline
 66
     1
 10
0.0
 20
0.0
 30
0.0
  0
VERTEX
  5
651
330
650
100
AcDbEntity
  8
Layer 1
 62
   250
370
    18
100
AcDbVertex
100
AcDb2dVertex
 10
5.153069390190972
 20
-2.115119086371528
 30
0.0
  0
VERTEX
  5
652
330
650
100
AcDbEntity
  8
Layer 1
 62
   250
370
    18
100
AcDbVertex
100
AcDb2dVertex
 10
6.327006022135416
 20
-2.115119086371528
 30
0.0
  0
SEQEND
  5
653
330
650
100
AcDbEntity
  8
Layer 1
370
    18
  0
POLYLINE
  5
654
330
64C
100
AcDbEntity
  8
Layer 1
 62
   250
370
    18
100
AcDb2dPolyline
 66
     1
 10
0.0
 20
0.0
 30
0.0
  0
VERTEX
  5
655
330
654
100
AcDbEntity
  8
Layer 1
 62
   250
370
    18
100
AcDbVertex
100
AcDb2dVertex
 10
6.452006022135416
 20
-2.115119086371528
 30
0.0
  0
VERTEX
  5
656
330
654
100
AcDbEntity
  8
Layer 1
 62
   250
370
    18
100
AcDbVertex
100
AcDb2dVertex
 10
7.452006022135416
 20
-2.115119086371528
 30
0.0
  0
SEQEND
  5
657
330
654
100
AcDbEntity
  8
Layer 1
370
    18
  0
POLYLINE
  5
658
330
64C
100
AcDbEntity
  8
Layer 1
 62
   250
370
    18
100
AcDb2dPolyline
 66
     1
 10
0.0
 20
0.0
 30
0.0
  0
VERTEX
  5
659
330
658
100
AcDbEntity
  8
Layer 1
 62
   250
370
    18
100
AcDbVertex
100
AcDb2dVertex
 10
7.577006022135416
 20
-2.115119086371528
 30
0.0
  0
VERTEX
  5
65A
330
658
100
AcDbEntity
  8
Layer 1
 62
   250
370
    18
100
AcDbVertex
100
AcDb2dVertex
 10
8.741034613715277
 20
-2.115119086371528
 30
0.0
  0
SEQEND
  5
65B
330
658
100
AcDbEntity
  8
Layer 1
370
    18
  0
ENDBLK
  5
64F
330
64C
100
AcDbEntity
  8
0
100
AcDbBlockEnd
  0
BLOCK
  5
66A
330
668
100
AcDbEntity
  8
0
100
AcDbBlockBegin
  2
block 46
 70
     0
 71
     0
 10
0.0
 20
0.0
 30
0.0
  3
block 46
  1

  0
POLYLINE
  5
66C
330
668
100
AcDbEntity
  8
Layer 1
 62
   250
370
    18
100
AcDb2dPolyline
 66
     1
 10
0.0
 20
0.0
 30
0.0
  0
VERTEX
  5
66D
330
66C
100
AcDbEntity
  8
Layer 1
 62
   250
370
    18
100
AcDbVertex
100
AcDb2dVertex
 10
5.153069390190972
 20
-1.976230197482639
 30
0.0
  0
VERTEX
  5
66E
330
66C
100
AcDbEntity
  8
Layer 1
 62
   250
370
    18
100
AcDbVertex
100
AcDb2dVertex
 10
6.327006022135416
 20
-1.976230197482639
 30
0.0
  0
SEQEND
  5
66F
330
66C
100
AcDbEntity
  8
Layer 1
370
    18
  0
POLYLINE
  5
670
330
668
100
AcDbEntity
  8
Layer 1
 62
   250
370
    18
100
AcDb2dPolyline
 66
     1
 10
0.0
 20
0.0
 30
0.0
  0
VERTEX
  5
671
330
670
100
AcDbEntity
  8
Layer 1
 62
   250
370
    18
100
AcDbVertex
100
AcDb2dVertex
 10
6.452006022135416
 20
-1.976230197482639
 30
0.0
  0
VERTEX
  5
672
330
670
100
AcDbEntity
  8
Layer 1
 62
   250
370
    18
100
AcDbVertex
100
AcDb2dVertex
 10
7.452006022135416
 20
-1.976230197482639
 30
0.0
  0
SEQEND
  5
673
330
670
100
AcDbEntity
  8
Layer 1
370
    18
  0
POLYLINE
  5
674
330
668
100
AcDbEntity
  8
Layer 1
 62
   250
370
    18
100
AcDb2dPolyline
 66
     1
 10
0.0
 20
0.0
 30
0.0
  0
VERTEX
  5
675
330
674
100
AcDbEntity
  8
Layer 1
 62
   250
370
    18
100
AcDbVertex
100
AcDb2dVertex
 10
7.577006022135416
 20
-1.976230197482639
 30
0.0
  0
VERTEX
  5
676
330
674
100
AcDbEntity
  8
Layer 1
 62
   250
370
    18
100
AcDbVertex
100
AcDb2dVertex
 10
8.741034613715277
 20
-1.976230197482639
 30
0.0
  0
SEQEND
  5
677
330
674
100
AcDbEntity
  8
Layer 1
370
    18
  0
ENDBLK
  5
66B
330
668
100
AcDbEntity
  8
0
100
AcDbBlockEnd
  0
BLOCK
  5
686
330
684
100
AcDbEntity
  8
0
100
AcDbBlockBegin
  2
block 47
 70
     0
 71
     0
 10
0.0
 20
0.0
 30
0.0
  3
block 47
  1

  0
POLYLINE
  5
688
330
684
100
AcDbEntity
  8
Layer 1
 62
   250
370
    18
100
AcDb2dPolyline
 66
     1
 10
0.0
 20
0.0
 30
0.0
  0
VERTEX
  5
689
330
688
100
AcDbEntity
  8
Layer 1
 62
   250
370
    18
100
AcDbVertex
100
AcDb2dVertex
 10
5.153069390190972
 20
-1.83734130859375
 30
0.0
  0
VERTEX
  5
68A
330
688
100
AcDbEntity
  8
Layer 1
 62
   250
370
    18
100
AcDbVertex
100
AcDb2dVertex
 10
6.327006022135416
 20
-1.83734130859375
 30
0.0
  0
SEQEND
  5
68B
330
688
100
AcDbEntity
  8
Layer 1
370
    18
  0
POLYLINE
  5
68C
330
684
100
AcDbEntity
  8
Layer 1
 62
   250
370
    18
100
AcDb2dPolyline
 66
     1
 10
0.0
 20
0.0
 30
0.0
  0
VERTEX
  5
68D
330
68C
100
AcDbEntity
  8
Layer 1
 62
   250
370
    18
100
AcDbVertex
100
AcDb2dVertex
 10
6.452006022135416
 20
-1.83734130859375
 30
0.0
  0
VERTEX
  5
68E
330
68C
100
AcDbEntity
  8
Layer 1
 62
   250
370
    18
100
AcDbVertex
100
AcDb2dVertex
 10
7.452006022135416
 20
-1.83734130859375
 30
0.0
  0
SEQEND
  5
68F
330
68C
100
AcDbEntity
  8
Layer 1
370
    18
  0
POLYLINE
  5
690
330
684
100
AcDbEntity
  8
Layer 1
 62
   250
370
    18
100
AcDb2dPolyline
 66
     1
 10
0.0
 20
0.0
 30
0.0
  0
VERTEX
  5
691
330
690
100
AcDbEntity
  8
Layer 1
 62
   250
370
    18
100
AcDbVertex
100
AcDb2dVertex
 10
7.577006022135416
 20
-1.83734130859375
 30
0.0
  0
VERTEX
  5
692
330
690
100
AcDbEntity
  8
Layer 1
 62
   250
370
    18
100
AcDbVertex
100
AcDb2dVertex
 10
8.741034613715277
 20
-1.83734130859375
 30
0.0
  0
SEQEND
  5
693
330
690
100
AcDbEntity
  8
Layer 1
370
    18
  0
ENDBLK
  5
687
330
684
100
AcDbEntity
  8
0
100
AcDbBlockEnd
  0
BLOCK
  5
6A2
330
6A0
100
AcDbEntity
  8
0
100
AcDbBlockBegin
  2
block 48
 70
     0
 71
     0
 10
0.0
 20
0.0
 30
0.0
  3
block 48
  1

  0
POLYLINE
  5
6A4
330
6A0
100
AcDbEntity
  8
Layer 1
 62
   250
370
    18
100
AcDb2dPolyline
 66
     1
 10
0.0
 20
0.0
 30
0.0
  0
VERTEX
  5
6A5
330
6A4
100
AcDbEntity
  8
Layer 1
 62
   250
370
    18
100
AcDbVertex
100
AcDb2dVertex
 10
5.153069390190972
 20
-1.698452419704861
 30
0.0
  0
VERTEX
  5
6A6
330
6A4
100
AcDbEntity
  8
Layer 1
 62
   250
370
    18
100
AcDbVertex
100
AcDb2dVertex
 10
6.327006022135416
 20
-1.698452419704861
 30
0.0
  0
SEQEND
  5
6A7
330
6A4
100
AcDbEntity
  8
Layer 1
370
    18
  0
POLYLINE
  5
6A8
330
6A0
100
AcDbEntity
  8
Layer 1
 62
   250
370
    18
100
AcDb2dPolyline
 66
     1
 10
0.0
 20
0.0
 30
0.0
  0
VERTEX
  5
6A9
330
6A8
100
AcDbEntity
  8
Layer 1
 62
   250
370
    18
100
AcDbVertex
100
AcDb2dVertex
 10
6.452006022135416
 20
-1.698452419704861
 30
0.0
  0
VERTEX
  5
6AA
330
6A8
100
AcDbEntity
  8
Layer 1
 62
   250
370
    18
100
AcDbVertex
100
AcDb2dVertex
 10
7.452006022135416
 20
-1.698452419704861
 30
0.0
  0
SEQEND
  5
6AB
330
6A8
100
AcDbEntity
  8
Layer 1
370
    18
  0
POLYLINE
  5
6AC
330
6A0
100
AcDbEntity
  8
Layer 1
 62
   250
370
    18
100
AcDb2dPolyline
 66
     1
 10
0.0
 20
0.0
 30
0.0
  0
VERTEX
  5
6AD
330
6AC
100
AcDbEntity
  8
Layer 1
 62
   250
370
    18
100
AcDbVertex
100
AcDb2dVertex
 10
7.577006022135416
 20
-1.698452419704861
 30
0.0
  0
VERTEX
  5
6AE
330
6AC
100
AcDbEntity
  8
Layer 1
 62
   250
370
    18
100
AcDbVertex
100
AcDb2dVertex
 10
8.741034613715277
 20
-1.698452419704861
 30
0.0
  0
SEQEND
  5
6AF
330
6AC
100
AcDbEntity
  8
Layer 1
370
    18
  0
ENDBLK
  5
6A3
330
6A0
100
AcDbEntity
  8
0
100
AcDbBlockEnd
  0
BLOCK
  5
6BE
330
6BC
100
AcDbEntity
  8
0
100
AcDbBlockBegin
  2
block 49
 70
     0
 71
     0
 10
0.0
 20
0.0
 30
0.0
  3
block 49
  1

  0
POLYLINE
  5
6C0
330
6BC
100
AcDbEntity
  8
Layer 1
 62
   250
370
    18
100
AcDb2dPolyline
 66
     1
 10
0.0
 20
0.0
 30
0.0
  0
VERTEX
  5
6C1
330
6C0
100
AcDbEntity
  8
Layer 1
 62
   250
370
    18
100
AcDbVertex
100
AcDb2dVertex
 10
5.153069390190972
 20
-1.559563530815972
 30
0.0
  0
VERTEX
  5
6C2
330
6C0
100
AcDbEntity
  8
Layer 1
 62
   250
370
    18
100
AcDbVertex
100
AcDb2dVertex
 10
6.327006022135416
 20
-1.559563530815972
 30
0.0
  0
SEQEND
  5
6C3
330
6C0
100
AcDbEntity
  8
Layer 1
370
    18
  0
POLYLINE
  5
6C4
330
6BC
100
AcDbEntity
  8
Layer 1
 62
   250
370
    18
100
AcDb2dPolyline
 66
     1
 10
0.0
 20
0.0
 30
0.0
  0
VERTEX
  5
6C5
330
6C4
100
AcDbEntity
  8
Layer 1
 62
   250
370
    18
100
AcDbVertex
100
AcDb2dVertex
 10
6.452006022135416
 20
-1.559563530815972
 30
0.0
  0
VERTEX
  5
6C6
330
6C4
100
AcDbEntity
  8
Layer 1
 62
   250
370
    18
100
AcDbVertex
100
AcDb2dVertex
 10
7.452006022135416
 20
-1.559563530815972
 30
0.0
  0
SEQEND
  5
6C7
330
6C4
100
AcDbEntity
  8
Layer 1
370
    18
  0
POLYLINE
  5
6C8
330
6BC
100
AcDbEntity
  8
Layer 1
 62
   250
370
    18
100
AcDb2dPolyline
 66
     1
 10
0.0
 20
0.0
 30
0.0
  0
VERTEX
  5
6C9
330
6C8
100
AcDbEntity
  8
Layer 1
 62
   250
370
    18
100
AcDbVertex
100
AcDb2dVertex
 10
7.577006022135416
 20
-1.559563530815972
 30
0.0
  0
VERTEX
  5
6CA
330
6C8
100
AcDbEntity
  8
Layer 1
 62
   250
370
    18
100
AcDbVertex
100
AcDb2dVertex
 10
8.741034613715277
 20
-1.559563530815972
 30
0.0
  0
SEQEND
  5
6CB
330
6C8
100
AcDbEntity
  8
Layer 1
370
    18
  0
ENDBLK
  5
6BF
330
6BC
100
AcDbEntity
  8
0
100
AcDbBlockEnd
  0
BLOCK
  5
6DA
330
6D8
100
AcDbEntity
  8
0
100
AcDbBlockBegin
  2
block 50
 70
     0
 71
     0
 10
0.0
 20
0.0
 30
0.0
  3
block 50
  1

  0
POLYLINE
  5
6DC
330
6D8
100
AcDbEntity
  8
Layer 1
 62
   250
370
    18
100
AcDb2dPolyline
 66
     1
 10
0.0
 20
0.0
 30
0.0
  0
VERTEX
  5
6DD
330
6DC
100
AcDbEntity
  8
Layer 1
 62
   250
370
    18
100
AcDbVertex
100
AcDb2dVertex
 10
5.153069390190972
 20
-1.420674641927083
 30
0.0
  0
VERTEX
  5
6DE
330
6DC
100
AcDbEntity
  8
Layer 1
 62
   250
370
    18
100
AcDbVertex
100
AcDb2dVertex
 10
6.327006022135416
 20
-1.420674641927083
 30
0.0
  0
SEQEND
  5
6DF
330
6DC
100
AcDbEntity
  8
Layer 1
370
    18
  0
POLYLINE
  5
6E0
330
6D8
100
AcDbEntity
  8
Layer 1
 62
   250
370
    18
100
AcDb2dPolyline
 66
     1
 10
0.0
 20
0.0
 30
0.0
  0
VERTEX
  5
6E1
330
6E0
100
AcDbEntity
  8
Layer 1
 62
   250
370
    18
100
AcDbVertex
100
AcDb2dVertex
 10
6.452006022135416
 20
-1.420674641927083
 30
0.0
  0
VERTEX
  5
6E2
330
6E0
100
AcDbEntity
  8
Layer 1
 62
   250
370
    18
100
AcDbVertex
100
AcDb2dVertex
 10
7.452006022135416
 20
-1.420674641927083
 30
0.0
  0
SEQEND
  5
6E3
330
6E0
100
AcDbEntity
  8
Layer 1
370
    18
  0
POLYLINE
  5
6E4
330
6D8
100
AcDbEntity
  8
Layer 1
 62
   250
370
    18
100
AcDb2dPolyline
 66
     1
 10
0.0
 20
0.0
 30
0.0
  0
VERTEX
  5
6E5
330
6E4
100
AcDbEntity
  8
Layer 1
 62
   250
370
    18
100
AcDbVertex
100
AcDb2dVertex
 10
7.577006022135416
 20
-1.420674641927083
 30
0.0
  0
VERTEX
  5
6E6
330
6E4
100
AcDbEntity
  8
Layer 1
 62
   250
370
    18
100
AcDbVertex
100
AcDb2dVertex
 10
8.741034613715277
 20
-1.420674641927083
 30
0.0
  0
SEQEND
  5
6E7
330
6E4
100
AcDbEntity
  8
Layer 1
370
    18
  0
ENDBLK
  5
6DB
330
6D8
100
AcDbEntity
  8
0
100
AcDbBlockEnd
  0
BLOCK
  5
6F6
330
6F4
100
AcDbEntity
  8
0
100
AcDbBlockBegin
  2
block 51
 70
     0
 71
     0
 10
0.0
 20
0.0
 30
0.0
  3
block 51
  1

  0
POLYLINE
  5
6F8
330
6F4
100
AcDbEntity
  8
Layer 1
 62
   250
370
    18
100
AcDb2dPolyline
 66
     1
 10
0.0
 20
0.0
 30
0.0
  0
VERTEX
  5
6F9
330
6F8
100
AcDbEntity
  8
Layer 1
 62
   250
370
    18
100
AcDbVertex
100
AcDb2dVertex
 10
5.153069390190972
 20
-1.281785753038194
 30
0.0
  0
VERTEX
  5
6FA
330
6F8
100
AcDbEntity
  8
Layer 1
 62
   250
370
    18
100
AcDbVertex
100
AcDb2dVertex
 10
6.327006022135416
 20
-1.281785753038194
 30
0.0
  0
SEQEND
  5
6FB
330
6F8
100
AcDbEntity
  8
Layer 1
370
    18
  0
POLYLINE
  5
6FC
330
6F4
100
AcDbEntity
  8
Layer 1
 62
   250
370
    18
100
AcDb2dPolyline
 66
     1
 10
0.0
 20
0.0
 30
0.0
  0
VERTEX
  5
6FD
330
6FC
100
AcDbEntity
  8
Layer 1
 62
   250
370
    18
100
AcDbVertex
100
AcDb2dVertex
 10
6.452006022135416
 20
-1.281785753038194
 30
0.0
  0
VERTEX
  5
6FE
330
6FC
100
AcDbEntity
  8
Layer 1
 62
   250
370
    18
100
AcDbVertex
100
AcDb2dVertex
 10
7.452006022135416
 20
-1.281785753038194
 30
0.0
  0
SEQEND
  5
6FF
330
6FC
100
AcDbEntity
  8
Layer 1
370
    18
  0
POLYLINE
  5
700
330
6F4
100
AcDbEntity
  8
Layer 1
 62
   250
370
    18
100
AcDb2dPolyline
 66
     1
 10
0.0
 20
0.0
 30
0.0
  0
VERTEX
  5
701
330
700
100
AcDbEntity
  8
Layer 1
 62
   250
370
    18
100
AcDbVertex
100
AcDb2dVertex
 10
7.577006022135416
 20
-1.281785753038194
 30
0.0
  0
VERTEX
  5
702
330
700
100
AcDbEntity
  8
Layer 1
 62
   250
370
    18
100
AcDbVertex
100
AcDb2dVertex
 10
8.741034613715277
 20
-1.281785753038194
 30
0.0
  0
SEQEND
  5
703
330
700
100
AcDbEntity
  8
Layer 1
370
    18
  0
ENDBLK
  5
6F7
330
6F4
100
AcDbEntity
  8
0
100
AcDbBlockEnd
  0
BLOCK
  5
712
330
710
100
AcDbEntity
  8
0
100
AcDbBlockBegin
  2
block 52
 70
     0
 71
     0
 10
0.0
 20
0.0
 30
0.0
  3
block 52
  1

  0
POLYLINE
  5
714
330
710
100
AcDbEntity
  8
Layer 1
 62
   250
370
    18
100
AcDb2dPolyline
 66
     1
 10
0.0
 20
0.0
 30
0.0
  0
VERTEX
  5
715
330
714
100
AcDbEntity
  8
Layer 1
 62
   250
370
    18
100
AcDbVertex
100
AcDb2dVertex
 10
5.153069390190972
 20
-1.142896864149306
 30
0.0
  0
VERTEX
  5
716
330
714
100
AcDbEntity
  8
Layer 1
 62
   250
370
    18
100
AcDbVertex
100
AcDb2dVertex
 10
6.327006022135416
 20
-1.142896864149306
 30
0.0
  0
SEQEND
  5
717
330
714
100
AcDbEntity
  8
Layer 1
370
    18
  0
POLYLINE
  5
718
330
710
100
AcDbEntity
  8
Layer 1
 62
   250
370
    18
100
AcDb2dPolyline
 66
     1
 10
0.0
 20
0.0
 30
0.0
  0
VERTEX
  5
719
330
718
100
AcDbEntity
  8
Layer 1
 62
   250
370
    18
100
AcDbVertex
100
AcDb2dVertex
 10
6.452006022135416
 20
-1.142896864149306
 30
0.0
  0
VERTEX
  5
71A
330
718
100
AcDbEntity
  8
Layer 1
 62
   250
370
    18
100
AcDbVertex
100
AcDb2dVertex
 10
7.452006022135416
 20
-1.142896864149306
 30
0.0
  0
SEQEND
  5
71B
330
718
100
AcDbEntity
  8
Layer 1
370
    18
  0
POLYLINE
  5
71C
330
710
100
AcDbEntity
  8
Layer 1
 62
   250
370
    18
100
AcDb2dPolyline
 66
     1
 10
0.0
 20
0.0
 30
0.0
  0
VERTEX
  5
71D
330
71C
100
AcDbEntity
  8
Layer 1
 62
   250
370
    18
100
AcDbVertex
100
AcDb2dVertex
 10
7.577006022135416
 20
-1.142896864149306
 30
0.0
  0
VERTEX
  5
71E
330
71C
100
AcDbEntity
  8
Layer 1
 62
   250
370
    18
100
AcDbVertex
100
AcDb2dVertex
 10
8.741034613715277
 20
-1.142896864149306
 30
0.0
  0
SEQEND
  5
71F
330
71C
100
AcDbEntity
  8
Layer 1
370
    18
  0
ENDBLK
  5
713
330
710
100
AcDbEntity
  8
0
100
AcDbBlockEnd
  0
BLOCK
  5
72E
330
72C
100
AcDbEntity
  8
0
100
AcDbBlockBegin
  2
block 53
 70
     0
 71
     0
 10
0.0
 20
0.0
 30
0.0
  3
block 53
  1

  0
POLYLINE
  5
730
330
72C
100
AcDbEntity
  8
Layer 1
 62
   250
370
    18
100
AcDb2dPolyline
 66
     1
 10
0.0
 20
0.0
 30
0.0
  0
VERTEX
  5
731
330
730
100
AcDbEntity
  8
Layer 1
 62
   250
370
    18
100
AcDbVertex
100
AcDb2dVertex
 10
5.153069390190972
 20
-1.004007975260417
 30
0.0
  0
VERTEX
  5
732
330
730
100
AcDbEntity
  8
Layer 1
 62
   250
370
    18
100
AcDbVertex
100
AcDb2dVertex
 10
6.327006022135416
 20
-1.004007975260417
 30
0.0
  0
SEQEND
  5
733
330
730
100
AcDbEntity
  8
Layer 1
370
    18
  0
POLYLINE
  5
734
330
72C
100
AcDbEntity
  8
Layer 1
 62
   250
370
    18
100
AcDb2dPolyline
 66
     1
 10
0.0
 20
0.0
 30
0.0
  0
VERTEX
  5
735
330
734
100
AcDbEntity
  8
Layer 1
 62
   250
370
    18
100
AcDbVertex
100
AcDb2dVertex
 10
6.452006022135416
 20
-1.004007975260417
 30
0.0
  0
VERTEX
  5
736
330
734
100
AcDbEntity
  8
Layer 1
 62
   250
370
    18
100
AcDbVertex
100
AcDb2dVertex
 10
7.452006022135416
 20
-1.004007975260417
 30
0.0
  0
SEQEND
  5
737
330
734
100
AcDbEntity
  8
Layer 1
370
    18
  0
POLYLINE
  5
738
330
72C
100
AcDbEntity
  8
Layer 1
 62
   250
370
    18
100
AcDb2dPolyline
 66
     1
 10
0.0
 20
0.0
 30
0.0
  0
VERTEX
  5
739
330
738
100
AcDbEntity
  8
Layer 1
 62
   250
370
    18
100
AcDbVertex
100
AcDb2dVertex
 10
7.577006022135416
 20
-1.004007975260417
 30
0.0
  0
VERTEX
  5
73A
330
738
100
AcDbEntity
  8
Layer 1
 62
   250
370
    18
100
AcDbVertex
100
AcDb2dVertex
 10
8.741034613715277
 20
-1.004007975260417
 30
0.0
  0
SEQEND
  5
73B
330
738
100
AcDbEntity
  8
Layer 1
370
    18
  0
ENDBLK
  5
72F
330
72C
100
AcDbEntity
  8
0
100
AcDbBlockEnd
  0
BLOCK
  5
74A
330
748
100
AcDbEntity
  8
0
100
AcDbBlockBegin
  2
block 54
 70
     0
 71
     0
 10
0.0
 20
0.0
 30
0.0
  3
block 54
  1

  0
POLYLINE
  5
74C
330
748
100
AcDbEntity
  8
Layer 1
 62
   250
370
    18
100
AcDb2dPolyline
 66
     1
 10
0.0
 20
0.0
 30
0.0
  0
VERTEX
  5
74D
330
74C
100
AcDbEntity
  8
Layer 1
 62
   250
370
    18
100
AcDbVertex
100
AcDb2dVertex
 10
5.153069390190972
 20
-0.8651190863715277
 30
0.0
  0
VERTEX
  5
74E
330
74C
100
AcDbEntity
  8
Layer 1
 62
   250
370
    18
100
AcDbVertex
100
AcDb2dVertex
 10
6.327006022135416
 20
-0.8651190863715277
 30
0.0
  0
SEQEND
  5
74F
330
74C
100
AcDbEntity
  8
Layer 1
370
    18
  0
POLYLINE
  5
750
330
748
100
AcDbEntity
  8
Layer 1
 62
   250
370
    18
100
AcDb2dPolyline
 66
     1
 10
0.0
 20
0.0
 30
0.0
  0
VERTEX
  5
751
330
750
100
AcDbEntity
  8
Layer 1
 62
   250
370
    18
100
AcDbVertex
100
AcDb2dVertex
 10
6.452006022135416
 20
-0.8651190863715277
 30
0.0
  0
VERTEX
  5
752
330
750
100
AcDbEntity
  8
Layer 1
 62
   250
370
    18
100
AcDbVertex
100
AcDb2dVertex
 10
7.452006022135416
 20
-0.8651190863715277
 30
0.0
  0
SEQEND
  5
753
330
750
100
AcDbEntity
  8
Layer 1
370
    18
  0
POLYLINE
  5
754
330
748
100
AcDbEntity
  8
Layer 1
 62
   250
370
    18
100
AcDb2dPolyline
 66
     1
 10
0.0
 20
0.0
 30
0.0
  0
VERTEX
  5
755
330
754
100
AcDbEntity
  8
Layer 1
 62
   250
370
    18
100
AcDbVertex
100
AcDb2dVertex
 10
7.577006022135416
 20
-0.8651190863715277
 30
0.0
  0
VERTEX
  5
756
330
754
100
AcDbEntity
  8
Layer 1
 62
   250
370
    18
100
AcDbVertex
100
AcDb2dVertex
 10
8.741034613715277
 20
-0.8651190863715277
 30
0.0
  0
SEQEND
  5
757
330
754
100
AcDbEntity
  8
Layer 1
370
    18
  0
ENDBLK
  5
74B
330
748
100
AcDbEntity
  8
0
100
AcDbBlockEnd
  0
BLOCK
  5
766
330
764
100
AcDbEntity
  8
0
100
AcDbBlockBegin
  2
block 55
 70
     0
 71
     0
 10
0.0
 20
0.0
 30
0.0
  3
block 55
  1

  0
POLYLINE
  5
768
330
764
100
AcDbEntity
  8
Layer 1
 62
   250
370
    18
100
AcDb2dPolyline
 66
     1
 10
0.0
 20
0.0
 30
0.0
  0
VERTEX
  5
769
330
768
100
AcDbEntity
  8
Layer 1
 62
   250
370
    18
100
AcDbVertex
100
AcDb2dVertex
 10
5.153069390190972
 20
-0.7262301974826388
 30
0.0
  0
VERTEX
  5
76A
330
768
100
AcDbEntity
  8
Layer 1
 62
   250
370
    18
100
AcDbVertex
100
AcDb2dVertex
 10
6.327006022135416
 20
-0.7262301974826388
 30
0.0
  0
SEQEND
  5
76B
330
768
100
AcDbEntity
  8
Layer 1
370
    18
  0
POLYLINE
  5
76C
330
764
100
AcDbEntity
  8
Layer 1
 62
   250
370
    18
100
AcDb2dPolyline
 66
     1
 10
0.0
 20
0.0
 30
0.0
  0
VERTEX
  5
76D
330
76C
100
AcDbEntity
  8
Layer 1
 62
   250
370
    18
100
AcDbVertex
100
AcDb2dVertex
 10
6.452006022135416
 20
-0.7262301974826388
 30
0.0
  0
VERTEX
  5
76E
330
76C
100
AcDbEntity
  8
Layer 1
 62
   250
370
    18
100
AcDbVertex
100
AcDb2dVertex
 10
7.452006022135416
 20
-0.7262301974826388
 30
0.0
  0
SEQEND
  5
76F
330
76C
100
AcDbEntity
  8
Layer 1
370
    18
  0
POLYLINE
  5
770
330
764
100
AcDbEntity
  8
Layer 1
 62
   250
370
    18
100
AcDb2dPolyline
 66
     1
 10
0.0
 20
0.0
 30
0.0
  0
VERTEX
  5
771
330
770
100
AcDbEntity
  8
Layer 1
 62
   250
370
    18
100
AcDbVertex
100
AcDb2dVertex
 10
7.577006022135416
 20
-0.7262301974826388
 30
0.0
  0
VERTEX
  5
772
330
770
100
AcDbEntity
  8
Layer 1
 62
   250
370
    18
100
AcDbVertex
100
AcDb2dVertex
 10
8.741034613715277
 20
-0.7262301974826388
 30
0.0
  0
SEQEND
  5
773
330
770
100
AcDbEntity
  8
Layer 1
370
    18
  0
ENDBLK
  5
767
330
764
100
AcDbEntity
  8
0
100
AcDbBlockEnd
  0
ENDSEC
  0
SECTION
  2
ENTITIES
  0
POLYLINE
  5
3C
330
1F
100
AcDbEntity
  8
Layer 1
 62
     1
370
    18
100
AcDb2dPolyline
 66
     1
 10
0.0
 20
0.0
 30
0.0
  0
VERTEX
  5
3D
330
3C
100
AcDbEntity
  8
Layer 1
 62
     1
370
    18
100
AcDbVertex
100
AcDb2dVertex
 10
1.192335340711806
 20
-4.687215169270833
 30
0.0
  0
VERTEX
  5
3E
330
3C
100
AcDbEntity
  8
Layer 1
 62
     1
370
    18
100
AcDbVertex
100
AcDb2dVertex
 10
1.192335340711806
 20
-8.437215169270832
 30
0.0
  0
VERTEX
  5
3F
330
3C
100
AcDbEntity
  8
Layer 1
 62
     1
370
    18
100
AcDbVertex
100
AcDb2dVertex
 10
4.69232177734375
 20
-8.437215169270832
 30
0.0
  0
VERTEX
  5
40
330
3C
100
AcDbEntity
  8
Layer 1
 62
     1
370
    18
100
AcDbVertex
100
AcDb2dVertex
 10
4.69232177734375
 20
-4.687215169270833
 30
0.0
  0
VERTEX
  5
41
330
3C
100
AcDbEntity
  8
Layer 1
 62
     1
370
    18
100
AcDbVertex
100
AcDb2dVertex
 10
1.192335340711806
 20
-4.687215169270833
 30
0.0
  0
SEQEND
  5
42
330
3C
100
AcDbEntity
  8
Layer 1
370
    18
  0
POLYLINE
  5
43
330
1F
100
AcDbEntity
  8
Layer 1
 62
     1
370
    18
100
AcDb2dPolyline
 66
     1
 10
0.0
 20
0.0
 30
0.0
  0
VERTEX
  5
44
330
43
100
AcDbEntity
  8
Layer 1
 62
     1
370
    18
100
AcDbVertex
100
AcDb2dVertex
 10
5.197055392795138
 20
-4.687221950954861
 30
0.0
  0
VERTEX
  5
45
330
43
100
AcDbEntity
  8
Layer 1
 62
     1
370
    18
100
AcDbVertex
100
AcDb2dVertex
 10
5.197055392795138
 20
-8.437215169270832
 30
0.0
  0
VERTEX
  5
46
330
43
100
AcDbEntity
  8
Layer 1
 62
     1
370
    18
100
AcDbVertex
100
AcDb2dVertex
 10
8.697041829427082
 20
-8.437215169270832
 30
0.0
  0
VERTEX
  5
47
330
43
100
AcDbEntity
  8
Layer 1
 62
     1
370
    18
100
AcDbVertex
100
AcDb2dVertex
 10
8.697041829427082
 20
-4.687221950954861
 30
0.0
  0
VERTEX
  5
48
330
43
100
AcDbEntity
  8
Layer 1
 62
     1
370
    18
100
AcDbVertex
100
AcDb2dVertex
 10
5.197055392795138
 20
-4.687221950954861
 30
0.0
  0
SEQEND
  5
49
330
43
100
AcDbEntity
  8
Layer 1
370
    18
  0
INSERT
  5
4B
330
1F
100
AcDbEntity
  8
Layer 1
100
AcDbBlockReference
  2
block 2
 10
0.0
 20
0.0
 30
0.0
  0
POLYLINE
  5
112
330
1F
100
AcDbEntity
  8
Layer 1
 62
     1
370
    18
100
AcDb2dPolyline
 66
     1
 10
0.0
 20
0.0
 30
0.0
  0
VERTEX
  5
113
330
112
100
AcDbEntity
  8
Layer 1
 62
     1
370
    18
100
AcDbVertex
100
AcDb2dVertex
 10
1.192335340711806
 20
-0.4814249674479166
 30
0.0
  0
VERTEX
  5
114
330
112
100
AcDbEntity
  8
Layer 1
 62
     1
370
    18
100
AcDbVertex
100
AcDb2dVertex
 10
1.192335340711806
 20
-4.231424967447916
 30
0.0
  0
VERTEX
  5
115
330
112
100
AcDbEntity
  8
Layer 1
 62
     1
370
    18
100
AcDbVertex
100
AcDb2dVertex
 10
4.69232177734375
 20
-4.231424967447916
 30
0.0
  0
VERTEX
  5
116
330
112
100
AcDbEntity
  8
Layer 1
 62
     1
370
    18
100
AcDbVertex
100
AcDb2dVertex
 10
4.69232177734375
 20
-0.4814249674479166
 30
0.0
  0
VERTEX
  5
117
330
112
100
AcDbEntity
  8
Layer 1
 62
     1
370
    18
100
AcDbVertex
100
AcDb2dVertex
 10
1.192335340711806
 20
-0.4814249674479166
 30
0.0
  0
SEQEND
  5
118
330
112
100
AcDbEntity
  8
Layer 1
370
    18
  0
INSERT
  5
11A
330
1F
100
AcDbEntity
  8
Layer 1
100
AcDbBlockReference
  2
block 3
 10
0.0
 20
0.0
 30
0.0
  0
INSERT
  5
1E2
330
1F
100
AcDbEntity
  8
Layer 1
100
AcDbBlockReference
  2
block 4
 10
0.0
 20
0.0
 30
0.0
  0
POLYLINE
  5
4AD
330
1F
100
AcDbEntity
  8
Layer 1
 62
     1
370
    18
100
AcDb2dPolyline
 66
     1
 10
0.0
 20
0.0
 30
0.0
  0
VERTEX
  5
4AE
330
4AD
100
AcDbEntity
  8
Layer 1
 62
     1
370
    18
100
AcDbVertex
100
AcDb2dVertex
 10
5.197055392795138
 20
-0.5178968641493056
 30
0.0
  0
VERTEX
  5
4AF
330
4AD
100
AcDbEntity
  8
Layer 1
 62
     1
370
    18
100
AcDbVertex
100
AcDb2dVertex
 10
5.197055392795138
 20
-4.267896864149305
 30
0.0
  0
VERTEX
  5
4B0
330
4AD
100
AcDbEntity
  8
Layer 1
 62
     1
370
    18
100
AcDbVertex
100
AcDb2dVertex
 10
8.697041829427082
 20
-4.267896864149305
 30
0.0
  0
VERTEX
  5
4B1
330
4AD
100
AcDbEntity
  8
Layer 1
 62
     1
370
    18
100
AcDbVertex
100
AcDb2dVertex
 10
8.697041829427082
 20
-0.5178968641493056
 30
0.0
  0
VERTEX
  5
4B2
330
4AD
100
AcDbEntity
  8
Layer 1
 62
     1
370
    18
100
AcDbVertex
100
AcDb2dVertex
 10
5.197055392795138
 20
-0.5178968641493056
 30
0.0
  0
SEQEND
  5
4B3
330
4AD
100
AcDbEntity
  8
Layer 1
370
    18
  0
INSERT
  5
4B5
330
1F
100
AcDbEntity
  8
Layer 1
100
AcDbBlockReference
  2
block 30
 10
0.0
 20
0.0
 30
0.0
  0
ENDSEC
  0
SECTION
  2
OBJECTS
  0
DICTIONARY
  5
C
330
0
100
AcDbDictionary
281
     1
  3
ACAD_GROUP
350
D
  3
ACAD_LAYOUT
350
1A
  3
ACAD_MLINESTYLE
350
17
  3
ACAD_PLOTSETTINGS
350
19
  3
ACAD_PLOTSTYLENAME
350
E
  3
ACAD_TABLESTYLE
350
780
  3
ACAD_VISUALSTYLE
350
2A
  0
DICTIONARY
  5
D
102
{ACAD_REACTORS
330
C
102
}
330
C
100
AcDbDictionary
281
     1
  0
DICTIONARY
  5
1A
102
{ACAD_REACTORS
330
C
102
}
330
C
100
AcDbDictionary
281
     1
  3
Layout1
350
1E
  3
Layout2
350
26
  3
Model
350
22
  0
DICTIONARY
  5
17
102
{ACAD_REACTORS
330
C
102
}
330
C
100
AcDbDictionary
281
     1
  3
Standard
350
18
  0
DICTIONARY
  5
19
102
{ACAD_REACTORS
330
C
102
}
330
C
100
AcDbDictionary
281
     1
  0
ACDBDICTIONARYWDFLT
  5
E
102
{ACAD_REACTORS
330
C
102
}
330
C
100
AcDbDictionary
281
     1
  3
Normal
350
F
100
AcDbDictionaryWithDefault
340
F
  0
DICTIONARY
  5
780
102
{ACAD_REACTORS
330
C
102
}
330
C
100
AcDbDictionary
281
     1
  0
DICTIONARY
  5
2A
102
{ACAD_REACTORS
330
C
102
}
330
C
100
AcDbDictionary
281
     1
  3
2dWireframe
350
2F
  3
3D Hidden
350
31
  3
3dWireframe
350
30
  3
Basic
350
32
  3
Brighten
350
36
  3
ColorChange
350
3A
  3
Conceptual
350
34
  3
Dim
350
35
  3
Facepattern
350
39
  3
Flat
350
2B
  3
FlatWithEdges
350
2C
  3
Gouraud
350
2D
  3
GouraudWithEdges
350
2E
  3
Linepattern
350
38
  3
Realistic
350
33
  3
Thicken
350
37
  0
LAYOUT
  5
1E
102
{ACAD_REACTORS
330
1A
102
}
330
1A
100
AcDbPlotSettings
  1

  2
none_device
  4

  6

 40
0.0
 41
0.0
 42
0.0
 43
0.0
 44
0.0
 45
0.0
 46
0.0
 47
0.0
 48
0.0
 49
0.0
140
0.0
141
0.0
142
1.0
143
1.0
 70
   688
 72
     0
 73
     0
 74
     5
  7

 75
    16
147
1.0
148
0.0
149
0.0
100
AcDbLayout
  1
Layout1
 70
     1
 71
     1
 10
0.0
 20
0.0
 11
12.0
 21
9.0
 12
0.0
 22
0.0
 32
0.0
 14
1.000000000000000E+20
 24
1.000000000000000E+20
 34
1.000000000000000E+20
 15
-1.000000000000000E+20
 25
-1.000000000000000E+20
 35
-1.000000000000000E+20
146
0.0
 13
0.0
 23
0.0
 33
0.0
 16
1.0
 26
0.0
 36
0.0
 17
0.0
 27
1.0
 37
0.0
 76
     0
330
1B
  0
LAYOUT
  5
26
102
{ACAD_REACTORS
330
1A
102
}
330
1A
100
AcDbPlotSettings
  1

  2
none_device
  4

  6

 40
0.0
 41
0.0
 42
0.0
 43
0.0
 44
0.0
 45
0.0
 46
0.0
 47
0.0
 48
0.0
 49
0.0
140
0.0
141
0.0
142
1.0
143
1.0
 70
   688
 72
     0
 73
     0
 74
     5
  7

 75
    16
147
1.0
148
0.0
149
0.0
100
AcDbLayout
  1
Layout2
 70
     1
 71
     2
 10
0.0
 20
0.0
 11
0.0
 21
0.0
 12
0.0
 22
0.0
 32
0.0
 14
0.0
 24
0.0
 34
0.0
 15
0.0
 25
0.0
 35
0.0
146
0.0
 13
0.0
 23
0.0
 33
0.0
 16
1.0
 26
0.0
 36
0.0
 17
0.0
 27
1.0
 37
0.0
 76
     0
330
23
  0
LAYOUT
  5
22
102
{ACAD_REACTORS
330
1A
102
}
330
1A
100
AcDbPlotSettings
  1

  2
none_device
  4

  6

 40
0.0
 41
0.0
 42
0.0
 43
0.0
 44
0.0
 45
0.0
 46
0.0
 47
0.0
 48
0.0
 49
0.0
140
0.0
141
0.0
142
1.0
143
1.0
 70
  1712
 72
     0
 73
     0
 74
     0
  7

 75
     0
147
1.0
148
0.0
149
0.0
100
AcDbLayout
  1
Model
 70
     1
 71
     0
 10
0.0
 20
0.0
 11
12.0
 21
9.0
 12
0.0
 22
0.0
 32
0.0
 14
1.000000000000000E+20
 24
1.000000000000000E+20
 34
1.000000000000000E+20
 15
-1.000000000000000E+20
 25
-1.000000000000000E+20
 35
-1.000000000000000E+20
146
0.0
 13
0.0
 23
0.0
 33
0.0
 16
1.0
 26
0.0
 36
0.0
 17
0.0
 27
1.0
 37
0.0
 76
     0
330
1F
331
29
  0
MLINESTYLE
  5
18
102
{ACAD_REACTORS
330
17
102
}
330
17
100
AcDbMlineStyle
  2
Standard
 70
     0
  3

 62
   256
 51
90.0
 52
90.0
 71
     2
 49
0.5
 62
   256
  6
BYLAYER
 49
-0.5
 62
   256
  6
BYLAYER
  0
ACDBPLACEHOLDER
  5
F
102
{ACAD_REACTORS
330
E
102
}
330
E
  0
VISUALSTYLE
  5
2F
102
{ACAD_REACTORS
330
2A
102
}
330
2A
100
AcDbVisualStyle
  2
2dWireframe
 70
     4
 71
     0
 72
     2
 73
     0
 90
        0
 40
-0.6
 41
-30.0
 62
     5
 63
     7
 74
     1
 91
        4
 64
     7
 65
   257
 75
     1
175
     1
 42
1.0
 92
        0
 66
   257
 43
1.0
 76
     1
 77
     6
 78
     2
 67
     7
 79
     5
170
     0
171
     0
290
     0
174
     0
 93
        1
 44
0.0
173
     0
291
     0
 45
0.0
1001
ACAD
1000
AcDbSavedByObjectVersion
1070
     0
  0
VISUALSTYLE
  5
31
102
{ACAD_REACTORS
330
2A
102
}
330
2A
100
AcDbVisualStyle
  2
3D Hidden
 70
     6
 71
     1
 72
     2
 73
     2
 90
        0
 40
-0.6
 41
-30.0
 62
     5
 63
     7
 74
     2
 91
        2
 64
     7
 65
   257
 75
     2
175
     1
 42
40.0
 92
        0
 66
   257
 43
1.0
 76
     1
 77
     6
 78
     2
 67
     7
 79
     3
170
     0
171
     0
290
     0
174
     0
 93
        1
 44
0.0
173
     0
291
     0
 45
0.0
1001
ACAD
1000
AcDbSavedByObjectVersion
1070
     0
  0
VISUALSTYLE
  5
30
102
{ACAD_REACTORS
330
2A
102
}
330
2A
100
AcDbVisualStyle
  2
3dWireframe
 70
     5
 71
     0
 72
     2
 73
     0
 90
        0
 40
-0.6
 41
-30.0
 62
     5
 63
     7
 74
     1
 91
        4
 64
     7
 65
   257
 75
     1
175
     1
 42
1.0
 92
        0
 66
   257
 43
1.0
 76
     1
 77
     6
 78
     2
 67
     7
 79
     5
170
     0
171
     0
290
     0
174
     0
 93
        1
 44
0.0
173
     0
291
     0
 45
0.0
1001
ACAD
1000
AcDbSavedByObjectVersion
1070
     0
  0
VISUALSTYLE
  5
32
102
{ACAD_REACTORS
330
2A
102
}
330
2A
100
AcDbVisualStyle
  2
Basic
 70
     7
 71
     1
 72
     0
 73
     1
 90
        0
 40
-0.6
 41
-30.0
 62
     5
 63
     7
 74
     0
 91
        4
 64
     7
 65
   257
 75
     1
175
     1
 42
1.0
 92
        8
 66
     7
 43
1.0
 76
     1
 77
     6
 78
     2
 67
     7
 79
     5
170
     0
171
     0
290
     0
174
     0
 93
        1
 44
0.0
173
     0
291
     1
 45
0.0
1001
ACAD
1000
AcDbSavedByObjectVersion
1070
     0
  0
VISUALSTYLE
  5
36
102
{ACAD_REACTORS
330
2A
102
}
330
2A
100
AcDbVisualStyle
  2
Brighten
 70
    12
 71
     2
 72
     2
 73
     0
 90
        0
 40
-0.6
 41
-30.0
 62
     5
 63
     7
 74
     1
 91
        4
 64
     7
 65
   257
 75
     1
175
     1
 42
1.0
 92
        8
 66
     7
 43
1.0
 76
     1
 77
     6
 78
     2
 67
     7
 79
     5
170
     0
171
     0
290
     0
174
     0
 93
        1
 44
50.0
173
     0
291
     1
 45
0.0
1001
ACAD
1000
AcDbSavedByObjectVersion
1070
     0
  0
VISUALSTYLE
  5
3A
102
{ACAD_REACTORS
330
2A
102
}
330
2A
100
AcDbVisualStyle
  2
ColorChange
 70
    16
 71
     2
 72
     2
 73
     3
 90
        0
 40
-0.6
 41
-30.0
 62
     5
 63
     8
 74
     1
 91
        4
 64
     7
 65
   257
 75
     1
175
     1
 42
1.0
 92
        8
 66
     8
 43
1.0
 76
     1
 77
     6
 78
     2
 67
     7
 79
     5
170
     0
171
     0
290
     0
174
     0
 93
        1
 44
0.0
173
     0
291
     1
 45
0.0
1001
ACAD
1000
AcDbSavedByObjectVersion
1070
     0
  0
VISUALSTYLE
  5
34
102
{ACAD_REACTORS
330
2A
102
}
330
2A
100
AcDbVisualStyle
  2
Conceptual
 70
     9
 71
     3
 72
     2
 73
     0
 90
        0
 40
-0.6
 41
-30.0
 62
     5
 63
     7
 74
     2
 91
        2
 64
     7
 65
   257
 75
     1
175
     1
 42
40.0
 92
        8
 66
     7
 43
1.0
 76
     1
 77
     6
 78
     2
 67
     7
 79
     3
170
     0
171
     0
290
     0
174
     0
 93
        1
 44
0.0
173
     0
291
     0
 45
0.0
1001
ACAD
1000
AcDbSavedByObjectVersion
1070
     0
  0
VISUALSTYLE
  5
35
102
{ACAD_REACTORS
330
2A
102
}
330
2A
100
AcDbVisualStyle
  2
Dim
 70
    11
 71
     2
 72
     2
 73
     0
 90
        0
 40
-0.6
 41
-30.0
 62
     5
 63
     7
 74
     1
 91
        4
 64
     7
 65
   257
 75
     1
175
     1
 42
1.0
 92
        8
 66
     7
 43
1.0
 76
     1
 77
     6
 78
     2
 67
     7
 79
     5
170
     0
171
     0
290
     0
174
     0
 93
        1
 44
-50.0
173
     0
291
     1
 45
0.0
1001
ACAD
1000
AcDbSavedByObjectVersion
1070
     0
  0
VISUALSTYLE
  5
39
102
{ACAD_REACTORS
330
2A
102
}
330
2A
100
AcDbVisualStyle
  2
Facepattern
 70
    15
 71
     2
 72
     2
 73
     0
 90
        0
 40
-0.6
 41
-30.0
 62
     5
 63
     7
 74
     1
 91
        4
 64
     7
 65
   257
 75
     1
175
     1
 42
1.0
 92
        8
 66
     7
 43
1.0
 76
     1
 77
     6
 78
     2
 67
     7
 79
     5
170
     0
171
     0
290
     0
174
     0
 93
        1
 44
0.0
173
     0
291
     1
 45
0.0
1001
ACAD
1000
AcDbSavedByObjectVersion
1070
     0
  0
VISUALSTYLE
  5
2B
102
{ACAD_REACTORS
330
2A
102
}
330
2A
100
AcDbVisualStyle
  2
Flat
 70
     0
 71
     2
 72
     1
 73
     1
 90
        2
 40
-0.6
 41
30.0
 62
     5
 63
     7
 74
     0
 91
        4
 64
     7
 65
   257
 75
     1
175
     1
 42
1.0
 92
        8
 66
     7
 43
1.0
 76
     1
 77
     6
 78
     2
 67
     7
 79
     5
170
     0
171
     0
290
     0
174
     0
 93
       13
 44
0.0
173
     0
291
     1
 45
0.0
1001
ACAD
1000
AcDbSavedByObjectVersion
1070
     0
  0
VISUALSTYLE
  5
2C
102
{ACAD_REACTORS
330
2A
102
}
330
2A
100
AcDbVisualStyle
  2
FlatWithEdges
 70
     1
 71
     2
 72
     1
 73
     1
 90
        2
 40
-0.6
 41
30.0
 62
     5
 63
     7
 74
     1
 91
        4
 64
     7
 65
   257
 75
     1
175
     1
 42
1.0
 92
        0
 66
   257
 43
1.0
 76
     1
 77
     6
 78
     2
 67
     7
 79
     5
170
     0
171
     0
290
     0
174
     0
 93
       13
 44
0.0
173
     0
291
     1
 45
0.0
1001
ACAD
1000
AcDbSavedByObjectVersion
1070
     0
  0
VISUALSTYLE
  5
2D
102
{ACAD_REACTORS
330
2A
102
}
330
2A
100
AcDbVisualStyle
  2
Gouraud
 70
     2
 71
     2
 72
     2
 73
     1
 90
        2
 40
-0.6
 41
30.0
 62
     5
 63
     7
 74
     0
 91
        4
 64
     7
 65
   257
 75
     1
175
     1
 42
1.0
 92
        0
 66
     7
 43
1.0
 76
     1
 77
     6
 78
     2
 67
     7
 79
     5
170
     0
171
     0
290
     0
174
     0
 93
       13
 44
0.0
173
     0
291
     1
 45
0.0
1001
ACAD
1000
AcDbSavedByObjectVersion
1070
     0
  0
VISUALSTYLE
  5
2E
102
{ACAD_REACTORS
330
2A
102
}
330
2A
100
AcDbVisualStyle
  2
GouraudWithEdges
 70
     3
 71
     2
 72
     2
 73
     1
 90
        2
 40
-0.6
 41
30.0
 62
     5
 63
     7
 74
     1
 91
        4
 64
     7
 65
   257
 75
     1
175
     1
 42
1.0
 92
        0
 66
   257
 43
1.0
 76
     1
 77
     6
 78
     2
 67
     7
 79
     5
170
     0
171
     0
290
     0
174
     0
 93
       13
 44
0.0
173
     0
291
     1
 45
0.0
1001
ACAD
1000
AcDbSavedByObjectVersion
1070
     0
  0
VISUALSTYLE
  5
38
102
{ACAD_REACTORS
330
2A
102
}
330
2A
100
AcDbVisualStyle
  2
Linepattern
 70
    14
 71
     2
 72
     2
 73
     0
 90
        0
 40
-0.6
 41
-30.0
 62
     5
 63
     7
 74
     1
 91
        4
 64
     7
 65
   257
 75
     7
175
     7
 42
1.0
 92
        8
 66
     7
 43
1.0
 76
     1
 77
     6
 78
     2
 67
     7
 79
     5
170
     0
171
     0
290
     0
174
     0
 93
        1
 44
0.0
173
     0
291
     1
 45
0.0
1001
ACAD
1000
AcDbSavedByObjectVersion
1070
     0
  0
VISUALSTYLE
  5
33
102
{ACAD_REACTORS
330
2A
102
}
330
2A
100
AcDbVisualStyle
  2
Realistic
 70
     8
 71
     2
 72
     2
 73
     0
 90
        0
 40
-0.6
 41
-30.0
 62
     5
 63
     7
 74
     1
 91
        0
 64
     7
 65
   257
 75
     1
175
     1
 42
1.0
 92
        8
 66
     8
 43
1.0
 76
     1
 77
     6
 78
     2
 67
     7
 79
     5
170
     0
171
     0
290
     0
174
     0
 93
       13
 44
0.0
173
     0
291
     0
 45
0.0
1001
ACAD
1000
AcDbSavedByObjectVersion
1070
     0
  0
VISUALSTYLE
  5
37
102
{ACAD_REACTORS
330
2A
102
}
330
2A
100
AcDbVisualStyle
  2
Thicken
 70
    13
 71
     2
 72
     2
 73
     0
 90
        0
 40
-0.6
 41
-30.0
 62
     5
 63
     7
 74
     1
 91
        4
 64
     7
 65
   257
 75
     1
175
     1
 42
1.0
 92
       12
 66
     7
 43
1.0
 76
     1
 77
     6
 78
     2
 67
     7
 79
     5
170
     0
171
     0
290
     0
174
     0
 93
        1
 44
0.0
173
     0
291
     1
 45
0.0
1001
ACAD
1000
AcDbSavedByObjectVersion
1070
     0
  0
ENDSEC
  0
EOF
